Lenox Annie - Why Chords & Tabs

 

Why Chords & Tabs

Lenox Annie Chords & Tabs

Version: 1 Type: Bass Tab 0 ratings
1 star 2 stars 3 stars 4 stars 5 stars
comments

Why Bass Tab

 Annie Lenox "Why"

 The only thing that changes are the number of hits.
 Listen, and figure it out. It's easy. I was bored.

 Intro: Repeat 4 times
G|----------------------------|
D|----------------------------|
A|-3-3--3-2-2--2-0-0--0-0--0--|
E|----------------------------|
[ Tab from: http://www.guitartabs.cc/tabs/l/lenox_annie/why_btab.html ]
 Chorus & Verse:
G|-----------------------------|
D|-----------------------------|
A|-3-3--3-2-2--2-0-0--0--------|
E|----------------------1-1--1-|

 Bridge:
G|-----------------------------|
D|-----------------------------|
A|-5-5--5-2-2--2---------------|
E|---------------2-2--2-3-3--3-|

 Tab'd by Nyte (Nytethorn@aol.com)
Comments