Lenny Kravitz - Yesterday Is Gone Chords & Tabs

 

Yesterday Is Gone Chords & Tabs

Lenny Kravitz Chords & Tabs

Version: 2 Type: Tab 0 ratings
1 star 2 stars 3 stars 4 stars 5 stars
comments

Yesterday Is Gone Tab

   
Yesterday Is Gone Tab by Lenny Kravitz
SOLO (starts at 2:21)
  
From:      Nathan
Artist:    Lenny Kravitz
Song:      Yesterday is gone
Album:     The greatest hits (it's all the same, except live versions)

h : Hammer
p : Pull Off
\ : slide
/ : slide back

  
  SOLO(2:21):

 E|----8-10\12---10p8----|-----8-10\12-10p8/12-15-12----------|
 B|8-10---------------10-|-8-10-------------------------------|
 G|----------------------|------------------------------------|
 D|----------------------|------------------------------------|
 A|----------------------|------------------------------------|
 E|----------------------|------------------------------------|
[ Tab from: http://www.guitartabs.cc/tabs/l/lenny_kravitz/yesterday_is_gone_tab_ver_2.html ]
 E|-----8-10\12---10p8----|-8p7-------------------------------|
 B|-8-10---------------10-|-----10p8-8h10-8-------------------|
 G|-----------------------|-----------------9p7p5-5h7p5-------|
 D|-----------------------|---------------------------------7-|
 A|-----------------------|-----------------------------------|
 E|-----------------------|-----------------------------------|


 E|-------8---------|-----------------------------------------|
 B|--\10-----10p8---|-----------------------------------------|
 G|-----------------|-----------------------------------------|
 D|-----------------|-----------------------------------------|
 A|-----------------|-----------------------------------------|
 E|-----------------|-1-1-1-1-1-1-1-1/3/4-4-4-4-4-4-4-4/6/7/8-| 

 E|---------------8-10b12----10\12-10-|--13p12-8/10\8---------|
 B|---------8-8h10--------------------|-----------------------|
 G|----5-7h9--------------------------|-----------------------|
 D|-5h7-------------------------------|-----------------------|
 A|-----------------------------------|-----------------------|
 E|-----------------------------------|-----------------------|


  THIS IS THE RIGHT ONE PEOPLE!!!!!!!! THANKS TO NATHAN!!! ;) I'm a boy of 15
years old.....and I've lucky that I have a good musical sound in my ears (but
my english is not so very well, because I'm from Holland;) I hope you like it!

Greetzzzzz Nathan
Comments