Lenny Kravitz - Yesterday Is Gone Chords & Tabs

 

Yesterday Is Gone Chords & Tabs

Lenny Kravitz Chords & Tabs

Version: 1 Type: Tab 0 ratings
1 star 2 stars 3 stars 4 stars 5 stars
comments

Yesterday Is Gone Tab

   
  From:      Kareem (ravenhunter@hotmail.com)
  Artist:    Lenny Kravitz
  Song:      Yesterday is gone(My dear kay)
  Album:     Lenny(2002)

  h : Hammer
  r : release
  \ : slide
  / : slide back

  
  SOLO(2:21):
  ***********

 E|----8-10\12---10r8----|-----8-10\12-10r8-10-13-12----------|
 B|8-10---------------10-|-8-10-------------------------------|
 G|----------------------|------------------------------------|
 D|----------------------|------------------------------------|
 A|----------------------|------------------------------------|
 E|----------------------|------------------------------------|
[ Tab from: http://www.guitartabs.cc/tabs/l/lenny_kravitz/yesterday_is_gone_tab.html ]
 E|-----8-10\12---10r8----|-8r7-------------------------------|
 B|-8-10---------------10-|-----10r8-8h10-8-------------------|
 G|-----------------------|-----------------9r8r7-5h7h8r7r5---|
 D|-----------------------|---------------------------------8-|
 A|-----------------------|-----------------------------------|
 E|-----------------------|-----------------------------------|


 E|-------8---------|-----------------------------------------|
 B|--\10-----10r8---|-----------------------------------------|
 G|---------------8-|-----------------------------------------|
 D|-----------------|-----------------------------------------|
 A|-----------------|-----------------------------------------|
 E|-----------------|-2-2-2-2-2-4----0-5-5-5-5-5-7---7\8------| take the last slide slow (7\8)

 E|---------------8-10h11r8--10\12-10-|--13/12-9h10--8--------|
 B|---------8-8h10--------------------|-----------------------|
 G|----7-7h9--------------------------|-----------------------|
 D|-7h9-------------------------------|-----------------------|
 A|-----------------------------------|-----------------------|
 E|-----------------------------------|-----------------------|


  Enjoy ;)
  Kareem,
Comments