Lenny Kravitz - Straight Cold Player Chords & Tabs

 

Straight Cold Player Chords & Tabs

Lenny Kravitz Chords & Tabs

Version: 1 Type: Bass Tab 0 ratings
1 star 2 stars 3 stars 4 stars 5 stars
comments

Straight Cold Player Bass Tab

Lenny Kravitz
Straight Cold Player

Tuning: EADG (normal)

Text:
I'm a straight cold player!


Intro:

G|---/17-------|
D|--------/17--|
A|-------------|
E|-------------|


Main riff:

G|-----------------------|
D|-----------------------|
A|-------------3--3---5--|
E|--3-5-5--3-0-----------|

[ Tab from: http://www.guitartabs.cc/tabs/l/lenny_kravitz/straight_cold_player_btab.html ]
And there are a few parts where the musisc stops
and than he begins with:

G|----------|
D|----------|
A|----------|
E|--5/12\5--|

and then again the main riff!

sometimes he plays some notes more but that you
can improvise like f.e. this:

G|------------------------------------|
D|---------------------------3-5-3----|
A|------------------3--3---5-------5--|
E|--12\5-3-5-5--3-0-------------------|

Have fun to improvise!
cU FRIXXX
Comments