Lenny Kravitz - Stillness Of Heart Chords & Tabs

 

Stillness Of Heart Chords & Tabs

Lenny Kravitz Chords & Tabs

Version: 3 Type: Tab 0 ratings
1 star 2 stars 3 stars 4 stars 5 stars
comments

Stillness Of Heart Tab

Solo for Lenny Kravitz - Stillness of heart. 
(On the Bb major pentatonic scale for most of it.
Lenny added some of the minor natural scale.)

|---------------------------------------|
|--6h8~--6h8-6--------------------------|
|--x----x------7-6-5-3--3-5^6^5p3-------|
|--x----x-------------5-----------5-3h5-|
|--x----x-------------------------------|
|--x----x-------------------------------|

|------------------------------------13-13----13------|
|--------11----13^14p11---------13^15---13^15-13^15p11|
|--11-12----12---------12-11~-------------------------|
|-----------------------------------------------------|
|-----------------------------------------------------|
|-----------------------------------------------------|
[ Tab from: http://www.guitartabs.cc/tabs/l/lenny_kravitz/stillness_of_heart_tab_ver_3.html ]
|--------------------------------------------------|
|-----------------11----13^14^13-11-13^14^13----13-|
|-12-10~----11-12----12----------------------12----|
|--------------------------------------------------|
|--------------------------------------------------|
|--------------------------------------------------|

|-10-13/15-15/17-17/18-18-18/20-20-20^22-20^22~~-----|
|----------------------------------------------------|
|----------------------------------------------------|
|----------------------------------------------------|
|----------------------------------------------------|
|----------------------------------------------------|

x: mute
h: hammer on
^: bend till
p: pull off
/: slide to
~: let ring
~~: let ring with vibrato

Matt Zinger. (01/2003)
Any comments or suggestions please send me an email: pacikist@hotmail.com
Comments