Lenny Kravitz - Stillness Of Heart Chords & Tabs

 

Stillness Of Heart Chords & Tabs

Lenny Kravitz Chords & Tabs

Version: 2 Type: Tab 0 ratings
1 star 2 stars 3 stars 4 stars 5 stars
comments

Stillness Of Heart Tab

   
Artist: Lenny Kravitz
Song: Stillness of heart
Album: Lenny
Standard Tuning: E-A-D-G-B-E

Send any comments to wasabii7@hotmail.com

The Verses played clean
     G / C                       F                              Eb
E----3---3-----------------------1------------------------------6----
B----3---5-----------------------1------------------------------8----
G----4---5-----------------------2------------------------------8----
D----5---5-----------------------3------------------------------8----
A----5---3-----------------------3------------------------------6----
E----3---3-----------------------1------------------------------6----
            

C/G
I'm out here on the street
G/C
There's no one left to meet
G/C
The things that were so sweet
G/C
No longer move my feet
               F
But I keep trying
             Eb   
I keep on trying


Chorus Chords, distortion and a little reverb:
[ Tab from: http://www.guitartabs.cc/tabs/l/lenny_kravitz/stillness_of_heart_tab_ver_2.html ]
      Bb                F                  C                    Eb
E-----1-----------------1------------------3--------------------6----
B-----3-----------------1------------------5--------------------8----
G-----3-----------------2------------------5--------------------8----
D-----3-----------------3------------------5--------------------8----
A-----1-----------------3------------------3--------------------6----
E-----1-----------------1------------------3--------------------6----

Bb                 F 
     All that I want 
                 C
is stillness of heart
           Eb
So I can start
Bb                F 
     To find my way
            C
Out of the dark
                Eb                       
And into your heart


Bridge:

                C
Where's the love?
                           Eb
What is this world we live in?
               C
Where's the love?
                         Eb
We've got to be more giving
               C
Where's the love?
                        Eb
What happened to forgiving?
     F
Anyone?


Chorus a few times and fade.
Comments