Lenny Kravitz - Little Girls Eyes Chords & Tabs

 

Little Girls Eyes Chords & Tabs

Lenny Kravitz Chords & Tabs

Version: 1 Type: Tab 0 ratings
1 star 2 stars 3 stars 4 stars 5 stars
comments

Little Girls Eyes Tab

Lenny Kravitz - Little Girl's Eyes 

Pre-intro: CLEAN
e|---------------------------- 
b|---------------------------- 
G|--6-6-6-6-6-6-6-6-6\\\\\\\\\ 
D|--7-7-7-7-7-7-7-7-7\\\\\\\\\ 
A|--9-9-9-9-9-9-9-9-9\\\\\\\\\ 
E|---------------------------- 

Intro: DISTORTION
e|--------------------------------------------------------- 
b|----5------------------5-------------------5------------- 
G|-/6---/6-4=---------/6---/6-4=----------/6---/6-4-------- 
D|------------/6-4==-------------2-/6-4==------------/6-4== 
A|--------------------------------------------------------- 
E|--------------------------------------------------------- 

CLEAN
e---|-7----------|-9-------9----16=|=======- 
b---|---7--------|---9-----9----14=|=======- 
G---|-----7------|-----9---9----14=|=======- 
D-9-|---------11-|-------------(16)|=======- 
A---|------------|-----------------|-------- 
E---|------------|-----------------|-------- 

Verse A: CLEAN   [1,2,3]             [4] 
e|----7-------9---|----9-----------|| -9=|========| 
b|----7-------9---|----10----------|| -9=|========| 
G|*---7-------9---|----11---------*|| -9=|========| 
D|*---------------|---------------*|| -11|========| 
A|----------------|----------------|| ---|--------| 
E|----------------|----------------|| ---|--------| 

Verse B:  Repeat intro 
[ Tab from: http://www.guitartabs.cc/tabs/l/lenny_kravitz/little_girls_eyes_tab.html ]
Chorus: CLEAN    [1,2,3]              [4] 
e|----------------|----------------|| -9=|========| 
b|----7-------9---|----10----------|| -9=|========| 
G|*---7-------9---|----11---------*|| -9=|========| 
D|*---7-------9---|----11---------*|| -11|========| 
A|----------------|----9-----------|| ---|--------| 
E|----------------|----------------|| ---|--------| 

Repeat verse A 
Repeat verse B 
Repeat Chorus 

Bridge: 
e||-7-----7-----7---|\
b||---8-----8-----8-||x4
G||-----7-----7-----|/

e||-5-----5-----5---|\
e||---7-----7-----7-||x4
G||-----6-----6-----|/

e||-7-----7-----7---|\
b||---8-----8-----8-||x4
G||-----7-----7-----|/

e||-5-----5-----5---|\
b||---7-----7-----7-||x2
G||-----6-----6-----|/

e|-6==========|=========-|
b|-7==========|=========-|
G|-6==========|=========-|

Solo (on verse A) DISTORTION+DELAY
e|-----------------------------------------------
b|-12b14--r12-10-9---10-9------------------10----
G|------------------------9------/11--/11-----11-
D|--------------------------11-------------------

e|-----------------------12-9-------------10----
b|-12b14--r12-10-9--10-9--------/11--/11-----11-
G|----------------------------------------------
D|----------------------------------------------

e|---------------------------------------------
b|-12b14---12-10-9---10-9----------------------
G|------------------------9------/11--/11-9----
D|--------------------------11--------------11-

e|----------------------------------------------
b|--------10-12--12b14-r12--12b14-r12-9-10-9====
G|-9--11----------------------------------------
D|----------------------------------------------

Repeat verse B 
Repeat the first repeat of the chorus 4x, then:

Outro: Clean
D|-------x-x-x-x-------x-x-2-3-4-x-------x-------x-x-|
A|-4-3-2-x-x-x-x-2-3-4-x-x-------x-------x-------x-x-|
E|-------x-x-x-x-------x-x-------x-2-2-2-x-2-2-2-x-x-|
repeat and fade out
Comments