Lenny Kravitz - Lady Chords & Tabs

 

Lady Chords & Tabs

Lenny Kravitz Chords & Tabs

Version: 3 Type: Tab 0 ratings
1 star 2 stars 3 stars 4 stars 5 stars
comments

Lady Tab

   
LADY by: Lenny Kravitz

Tab by: Aaron Meredith

/ = slide up
\ = slide down
~ = let ring
h = hammer-on
b = bend
b^= bend whole step up


Intro:
e|---3--3--33--3--3--33--3-----|
B|---3--3--33--3--3--33--3-----|
G|---4--4--44--4--4--44--4-----|x2
D|---5--5--55--5--5--55--5-----|
A|---5--5--55--5--5--55--5-----|
E|---3--3--33--3--3--33--3-----|

Verse:
e|---3--3--33--3--3--33--3-----|
B|---3--3--33--3--3--33--3-----|
G|---4--4--44--4--4--44--4-----|x2
D|---5--5--55--5--5--55--5-----|
A|---5--5--55--5--5--55--5-----|
E|---3--3--33--3--3--33--3-----|

e|---1--1--11--1--00--0--0----|
B|---1--1--11--1--00--0--0----|
G|---2--2--22--2--11--1--1----|
D|---3--3--33--3--22--2--2----|
A|---3--3--33--3--22--2--2----|
E|---1--1--11--1--00--0--0----|

e|---3--3--33--3--3--33--3-----|
B|---3--3--33--3--3--33--3-----|
G|---4--4--44--4--4--44--4-----|x2
D|---5--5--55--5--5--55--5-----|
A|---5--5--55--5--5--55--5-----|
E|---3--3--33--3--3--33--3-----|

e|---1--1--11--1--00--0--0----|
B|---1--1--11--1--00--0--0----|
G|---2--2--22--2--11--1--1----|
D|---3--3--33--3--22--2--2----|
A|---3--3--33--3--22--2--2----|
E|---1--1--11--1--00--0--0----|

Chorus:
e|---3--3--33--3--3--33--3----8---8---8-8---7--7--77--7---|
B|---3--3--33--3--3--33--3----8---8---8-8---7--7--77--7---|
G|---4--4--44--4--4--44--4----9---9---9-9---8--8--88--8---|
D|---5--5--55--5--5--55--5---10--10--1010---9--9--99--9---|
A|---5--5--55--5--5--55--5---10--10--1010---9--9--99--9---|
E|---3--3--33--3--3--33--3----8---8---8-8---7--7--77--7---|
[ Tab from: http://www.guitartabs.cc/tabs/l/lenny_kravitz/lady_tab_ver_3.html ]
e|--7--7--77---5--5--55--5----8---8---8-8---7--7--77--7-----|
B|--8--8--88---5--5--55--5----8---8---8-8---7--7--77--7-----|
G|--9--9--99---6--6--66--6----9---9---9-9---8--8--88--8-----|x2
D|--9--9--99---7--7--77--7---10--10--1010---9--9--99--9-----|
A|--7--7--77---7--7--77--7---10--10--1010---9--9--99--9-----|
E|--x--x--xx---5--5--55--5----8---8---8-8---7--7--77--7-----|


REPEAT VERSE & CHORUS: (guitar 2 plays some 7th chords)


Interlude:
e|--x--------5---------8--------x---------|
B|--9--------5---------8--------9---------|
G|--9--------6---------9--------9---------|
D|--9-(x16)--7-(x16)--10-(x16)--9-(x16)---|
A|--7--------7--------10--------7---------|
E|--x--------5---------8--------x---------|


Solo: (verse rhythm played during solo)
e|--------------------------------------------------------
B|--10b-8---------------------------------------------8~--
G|---------9b-7-------------------------------------7-----
D|---------------7b-5-------------------------5-7/9-------
A|---------------------7b-5---------------5-7h------------
E|---------------------------5b-3---3-5/7-----------------

e -----------------------------------------------------------15~~-|
B --10b~~-8-10-10~--8-10-10b^~~~-----------------------15-17------|
G ---------------------------------14b-14-12-14--14/16------------|
D ----------------------------------------------------------------|
A ----------------------------------------------------------------|
E ----------------------------------------------------------------|


REPEAT CHORUS:


REPEAT INTERLUDE & FADE:


Guitar 2: (during Interlude Fade)
e|----------------------------------------------------------|---------|
B|----------------------------------------------------------|---------|
G|----------------------------------------------------------|---------|
D|--6~----6-7-9--9/10--9--7~--7-9-9/10--9--7--5--4-5-4--6~--|-6-7-6---|
A|------7---------------------------------------------------|-------7~|
E|----------------------------------------------------------|---------|
Comments