Lenny Kravitz - It Aint Over Til Its Over Chords & Tabs

 

It Aint Over Til Its Over Chords & Tabs

Lenny Kravitz Chords & Tabs

Version: 2 Type: Tab 0 ratings
1 star 2 stars 3 stars 4 stars 5 stars
comments

It Aint Over Til Its Over Tab

   
it aint over till its over
by: lenny kravitz

(i bet the rhythm guitar part is posted here in this site)
lead guitar:

   D  A  C  G
|--5--5--3--3------------------------------------------|
|--7--5--5--3------------------------------------------|
|--7--6--5--4------------------------------------------|
|------------------------------------------------------|
|------------------------------------------------------|
|------------------------------------------------------|

solo:
|--------------------------------------------------|
|-19b(21)-19b(18)-19b(18)-19b(18)-21-19------------|
|--------------------------------------------------|
|--------------------------------------------------|
|--------------------------------------------------|
|--------------------------------------------------|
[ Tab from: http://www.guitartabs.cc/tabs/l/lenny_kravitz/it_aint_over_til_its_over_tab_ver_2.html ]
|--------------------------------------------------|
|--------18---------------------------------------------|
|-s17-19----19s---17b(19)-17b(18)-17b(18)-17b(18)-19-17-|
|-------------------------------------------------------|
|-------------------------------------------------------|
|-------------------------------------------------------|

|--------------------------------------------------|
|--------------------------------------------------|
|-12b(14)-14-14-14-12-14b(16)-14-14-12-------------|
|--------------------------------------------------|
|--------------------------------------------------|
|--------------------------------------------------|

|------------------------------------------------------|
|------------------------------------------------------|
|-18p17p0-17p15p0-15p14p0-14p12p0-12-12s14-14s15-15s17-|
|------------------------------------------------------|
|------------------------------------------------------|
|------------------------------------------------------|
Comments