Lenny Kravitz - It Aint Over Til Its Over Chords & Tabs

 

It Aint Over Til Its Over Chords & Tabs

Lenny Kravitz Chords & Tabs

Version: 1 Type: Tab 0 ratings
1 star 2 stars 3 stars 4 stars 5 stars
comments

It Aint Over Til Its Over Tab

Lenny Kravitz, It ain't over til it's over solo.
 Tabbed by Paulie, snl_man@hotmail.com.
  
e------------------------------------------
B------------------------------------------
G-9b11-9-9-9-11-9---4-6-9-6---6-4-4-4-6-4--
D------------------------------------------
[ Tab from: http://www.guitartabs.cc/tabs/l/lenny_kravitz/it_aint_over_til_its_over_tab.html ]
e-----------------------------------------
B-----------------------------------------
G-1-1-1---2b4-2-1---------1---1--5p4-4p3--
D-------4---------4-4-4-4---4-------------

e-----------------------------------------
B-----------------------------------------
G-3p2-2p1-1p0-----------------------------
D-----------------------------------------

I'm only 14 and no one else had it posted so if u have a problem or a correction feel free to email me or IM me at Rocky Balboa 854 
:: Ultimate Guitar Archive :: 
http://www.ultimate-guitar.com 



Comments