Lenny Kravitz - Is There Any Love Chords & Tabs

 

Is There Any Love Chords & Tabs

Lenny Kravitz Chords & Tabs

Version: 1 Type: Tab 0 ratings
1 star 2 stars 3 stars 4 stars 5 stars
comments

Is There Any Love Tab

Date: Sun, 10 Sep 1995 10:51:43 GMT
From: Roger Spencer 
Subject: TAB:  BY  



Is there any love in your heart?

Written by Lenny Kravitz

Trans: Matt Spencer

Taken from the ablum   "Are you gonna go my way"



This is one funky riff - shouldn't be to hard



Intro/verse

e-----------------------------5--5--x--x--|--
b--------8--8--8--8--x--7--x--5--5--x--x--|--
g--------6--6--6--6--x--6--x--6--6--x--x--|--
d--------7--7--7--7--x--7--x--7--7--x--x--|--
a---0-------------------0--------0--x--x--|--
e-----------------------------------------|--


e-------------------------------------5--5---x--x--|--
b----------8--8--8--8--x--7--x--7--x--5--5---x--x--|--
g----------6--6--6--6--x--6--x--6--x--6--6---x--x--|--
d----------7--7--7--7--x--7--x--7--x--7--7---x--x--|--
a--0--0-------------------0-----0--------0---x--x--|--
e--------------------------------------------------|--


e-------8--8--8--8--x-7-----5--5--x--x--|--
b-------8--8--8--8--x-7--x--5--5--x--x--|--
g-------6--6--6--6--x-6--x--6--6--x--x--|--
d-------7--7--7--7--x-7--x--7--7--x--x--|--
a-0--0----------------0--------0--x--x--|--
e---------------------------------------|--


e----------------------------5--5--x--x--|--
b-------8--8--8--8--x--7--x--5--5--x--x--|--
g-------6--6--6--6--x--6--x--6--6--x--x--|--
d-------7--7--7--7--x--7--x--7--7--x--x--|--
a--0--0----------------------------x--x--|--
e----------------------------------------|--

[ Tab from: http://www.guitartabs.cc/tabs/l/lenny_kravitz/is_there_any_love_tab.html ]
e--------8--8--8--8--x--7--x--5--5--x--x--|--
b--------8--8--8--8--x--7--x--5--5--x--x--|--
g--------6--6--6--6--x--6--x--6--6--x--x--|--
d--------7--7--7--7--x--7--x--7--7--x--x--|--
a--0--0-----------------0--------7--x--x--|--
e-----------------------------------------|--


Verse 1.

Tell me baby, why can't you see, that I'm feeling down
If you open your eyes you'd see, that I'm wearing a frown
You'd think about yourself if you thought I was dead
Aw Yeah!

Verse 2.

Baby baby you walk around like you own this town
Your whole life is a fantasy, and I'm playing the clown
You talk behind my back, and spend up all my bread

Chorus

Is there any love in your heart
ooh  Yeah
Is there any love in your heart
ooh  

Verse 3.

Babe you say I'm the only one - but your fucking all my friends
Baby all that you care about is Gucci and Mercedes Benz
Your just the kind that's up all the latest trends



Before each chorus play:


e-------12-------------------
b--12B------12rp10--12---10--
g----------------------------
d----------------------------


Is there any......

e---12B--r---10------------------
b----------------12B----10-------
g----------------------------10--
d--------------------------------





Ooh  Yeah
         	e--------12------------------
		b--12B------12rp10--12---10--
		g----------------------------
		d----------------------------


Is there any......

e--12B---r--10--------------------
b---------------12B--12p10---12b--
d---------------------------------
g---------------------------------




B	=	Full Bend
b	=	1/2 Bend
r	=	Release
p	=	Pull Off
			



Comments