Lenny Kravitz - I Belong To You Chords & Tabs

 

I Belong To You Chords & Tabs

Lenny Kravitz Chords & Tabs

Version: 1 Type: Bass Tab 0 ratings
1 star 2 stars 3 stars 4 stars 5 stars
comments

I Belong To You Bass Tab

I Belong To You - Lenny Kravitz

bass enters at about 0:13 seconds

intro
   (x2)
G|------------|---------------------------|
D|------------|---------------------------|
A|3-33-3-13---|---------------------------|
E|------------|3-33-3-13---0123-33-3-13---|

  verse 1 (x2)
G|--------------------------------------------|
D|--------------------------------------------|
A|1--33--33---33--33---3h5--------------------|
E|--------------------------33--33---33--33---|

  chorus 1 (x2)
G|-------------------------------------------------------------|
D|-----55-5-5---------55-5-5--------------------5\-------------|
A|1--3-------3---0123-------3---3h5--5-55-5-5------5-55-5-5----|
E|-------------------------------------------3-------------3---|
[ Tab from: http://www.guitartabs.cc/tabs/l/lenny_kravitz/i_belong_to_you_btab.html ]
  verse 2
G|------------------------------------------------------------------------------345-----------
D|-----------------------------------------------------------------------------5--------------
A|1--3-33-3-13---0123-33-3-13---3h5-----------------------------1--3-33-3-13--------33-3-13---
E|-----------------------------------3-33-3-13---0123-33-3-13---------------------------------

--------------------------------------------------------------------------------------------
----------------------55-5-5----------------------------------------------------------------
3h5-----------------------------1--3-33-3-13---0123-33-3-13---3h5----------------------1----
-----3-33-3-13---0123-------3--------------------------------------3-33-3-13----0123333-3---

----------------345----------------------------------------------------------------------------
---------------5-------------------------------------------------------------------------------
1--3-33-3-13--------33-3-13---3h5---------------------------1--3-33-3-13---0123-33-3-13---3h5--
-----------------------------------3-33-3-13-0123-33-3-13--------------------------------------

---------------------------|
---------------------------|
---------------------------|
3-33-3-13---0123-33-3-13---|

Tabbed by Achilles (blue_sincere@hotmail.com)
Comments