Lenny Kravitz - Fly Away Chords & Tabs

 

Fly Away Chords & Tabs

Lenny Kravitz Chords & Tabs

Version: 5 Type: Tab 0 ratings
1 star 2 stars 3 stars 4 stars 5 stars
comments

Fly Away Tab

   
Artist: Lenny Kravitz
Song: Fly Away
Album: Greatest hits
Standard Tuning: E-A-D-G-B-E

Tab Translation
x = Mute String
\ = Slide up

Any Comments to wasabii7@hotmail.com

Intro/Main Riff *At (0:14) have two guitar's playing the Riff*
E------------------------------------------------------------
B------------------------------------------------------------
G-----------------------------------------------x-7--7-7-7-7-
D--7--7-7-7-7--9-x-10--10-10-10-10-x-5--5-5-5-5-x-7--7-7-7-7-
A--7--7-7-7-7--9-x-10--10-10-10-10-x-5--5-5-5-5-x-5--5-5-5-5-
E--5--5-5-5-5--7-x--8---8--8--8--8-x-3--3-3-3-3--------------

(0:24)
Fill lyrics "I wish that i could fly into the sky so very high just like a dragon fly"

(0:37)
Fill/2 Lyrics "Fly above the trees over sea's and over green to anywhere i please Oh!!!! "
[ Tab from: http://www.guitartabs.cc/tabs/l/lenny_kravitz/fly_away_tab_ver_5.html ]
(0:48)
Play the Main Riff 12 times
E------------------------------------------------------------
B------------------------------------------------------------
G-----------------------------------------------x-7--7-7-7-7-
D--7--7-7-7-7--9-x-10--10-10-10-10-x-5--5-5-5-5-x-7--7-7-7-7-
A--7--7-7-7-7--9-x-10--10-10-10-10-x-5--5-5-5-5-x-5--5-5-5-5-
E--5--5-5-5-5--7-x--8---8--8--8--8-x-3--3-3-3-3--------------

(2:00)
After he say's "Yeah!" play this
E---17\------
B------------
G------------
D------------
A------------
E------------

Fill/3 *Quiet part* Lyrics " i gotta get away.......girl i gotta get away"

Oh!...Oh!...Oh Yeah!!!

Play the Main riff 12 times until song ends
(2:24)
E------------------------------------------------------------
B------------------------------------------------------------
G-----------------------------------------------x-7--7-7-7-7-
D--7--7-7-7-7--9-x-10--10-10-10-10-x-5--5-5-5-5-x-7--7-7-7-7-
A--7--7-7-7-7--9-x-10--10-10-10-10-x-5--5-5-5-5-x-5--5-5-5-5-
E--5--5-5-5-5--7-x--8---8--8--8--8-x-3--3-3-3-3--------------

Yeah! Yeah! Yeah! Yeah! Yeah!!!!..........end of song


Send any comments to wasabii7@hotmail.com (Leo da Lion)
Comments