Lenny Kravitz - Flash Chords & Tabs

 

Flash Chords & Tabs

Lenny Kravitz Chords & Tabs

Version: 1 Type: Tab 0 ratings
1 star 2 stars 3 stars 4 stars 5 stars
comments

Flash Tab

    lenny kravitz:flash
    standard tunning:EADGBe

            INTRO/CHORUS
|------------------------------------------------------------------------|
|------------------------------------------------------------------------|
|------------------------------------------------------------------------|
|-11-11-11-11--9-9-9-9--4-4--7---7---9---9-------------------------------|
|-11-11-11-11--9-9-9-9--4-4--7-7-----9-9---------------------------------|
|-9--9--9--9---7-7-7-7--2-2--5-------7-----------------------------------|
[ Tab from: http://www.guitartabs.cc/tabs/l/lenny_kravitz/flash_tab.html ]
                    VEARSE
|------------|-----------------------------------------------------------|
|------------|----4------------------------------------------------------|
|---4--------|--4-4-4----2-6-6-------------------------------------------|
|-4-4-4-4----|--4-4-4----2-6-6-------------------------------------------|
|-4-4-4-4----|--2---2----0-4-4-------------------------------------------|
|-2---2-2----|--then-----------------------------------------------------|

            BRIDGE (REPEAT 2 TIMES)
|--------------------------------------------------------------------------|
|--------------------------------------------------------------------------|
|--------------------------------------------------------------------------|
|-7-7-x-7-7-7-x-7--9-9-x-9-9-9-x-9--7-7-x-7-7-7-x-7--11-11-x-11-11-11-x-11-|
|-7-7-x-7-7-7-x-7--9-9-x-9-9-9-x-9--7-7-x-7-7-7-x-7--11-11-x-11-11-11-x-11-|
|-5-5-x-5-5-5-x-5--7-7-x-7-7-7-x-7--5-5-x-5-5-5-x-5--9--9--x-9--9--9--x-9--|

       SOLO
|---------------|-----------------------------|---------------------|
|------9H12P9---|-----------------------------|-------9-12-9-14-14--|SORRY
|--B11----------|-11P9----9-------------------|---B11---------------|DON'T
|---------------|------11---11P9----9H11------|---------------------|NO THE
|---------------|----------------11-----------|---------------------|END OF
|---------------|-----------------------------|---------------------|THE SOLO

                       ENJOY
Comments