Lenny Kravitz - Dig In Chords & Tabs

 

Dig In Chords & Tabs

Lenny Kravitz Chords & Tabs

Version: 5 Type: Tab 0 ratings
1 star 2 stars 3 stars 4 stars 5 stars
comments

Dig In Tab

   
Artist: Lenny Kravitz
Song: Dig in
Album: Lenny
Standard Tuning E-A-D-G-B-E

Send Comments to wasabii7@hotmail.com
 
Tab Translation
x = Mute String
\ = Slide up
/ = Slide down
B = bend

Intro/chorus *play This 2 times*
e|-------------------------------------------------
B|-------------------------------------------------
G|-2-2-2-2-2-2-2-2-2-2-2-2-2-2-4-4-4-4-4-4-4-4-4-4-
D|-2-2-2-2-2-2-2-2-2-2-2-2-2-2-4-4-4-4-4-4-4-4-4-4-
A|-0-0-0-0-0-0-0-0-0-0-0-0-0-0-2-2-2-2-2-2-2-2-2-2-
E|-------------------------------------------------

 -------------------------------| 
 -------------------------------| 
 -7-7-7-7-7-7-7-7-7-7-7-7-7-7-7-| 
 -7-7-7-7-7-7-7-7-7-7-7-7-7-7-7-| 
 -5-5-5-5-5-5-5-5-5-5-5-5-5-5-5-| 
 -------------------------------| 

Verse:
(0:24) play this 4 times
E-----|-----------------------------|
B-----|-----------------------------|
G-----|-----------4-------------4---|
D-4-4-|-X-X-X-X-X-4-4-X-X-X-X-X-4-4-| 
A-4-4-|-X-X-X-X-X-2-4-X-X-X-X-X-2-4-| 
E-2-2-|-X-X-X-X-X---2-X-X-X-X-X---2-|


Pre-Chorus:
[ Tab from: http://www.guitartabs.cc/tabs/l/lenny_kravitz/dig_in_tab_ver_5.html ]
|---------------------------------|
|---------------------------------|
|-7-7-7-7-7-7-7-7-----------------|
|-7-7-7-7-7-7-7-7-7-7-7-7-7-7-7-7-|
|-5-5-5-5-5-5-5-5-7-7-7-7-7-7-7-7-|
|-----------------5-5-5-5-5-5-5-5-|

|---------------------------------|
|---------------------------------|
|-7-7-7-7-7-7-7-7-8-8-8-8-9-9-9-9-|
|-7-7-7-7-7-7-7-7-8-8-8-8-9-9-9-9-|
|-5-5-5-5-5-5-5-5-6-6-6-6-7-7-7-7-|
|---------------------------------|

Chorus:

same as intro.

Solo
e|------------------------------------------------------|
B|------------------------------------------------------|
G|7/-9999999-7/-9999999-9/-12121212121212-12/^14-12/^14-|
D|5/-7777777-5/-7777777-7/-10101010101010-10/^12-10/^12-|
A|------------------------------------------------------|
E|------------------------------------------------------|
       
e|----------------|---------------------^12-12-10-------|
B|---*------*-----|------10-^12-12-10-------------12-10-|
G|^14-141312-14-12|-9-11--------------11----------------|
D|----------------|-------------------------------------|
A|----------------|-------------------------------------|
E|----------------|-------------------------------------|

e|------------------------------------------------------|
B|^10-^10-^12-------------------------------------------|
G|^9--^11-^11-------------------------------------------|
D|------------------------------------------------------|
A|------------------------------------------------------|
E|------------------------------------------------------|
Comments