Lenny Kravitz - Dig In Chords & Tabs

 

Dig In Chords & Tabs

Lenny Kravitz Chords & Tabs

Version: 4 Type: Tab 0 ratings
1 star 2 stars 3 stars 4 stars 5 stars
comments

Dig In Tab

   
GUITAR TABS FOR LENNY KRAVITZ’S

“DIG IN”

Originally recorded by Lenny Kravitz
from the album “Lenny”
File developed by Marcus Azenha – marc_rs@terra.com.br
& Natália Azenha  - nazenha@bol.com.br
	
Standard Tuning E A D G B E

KEY:
\    -> SLIDE DOWN
X    -> MUTE NOTE
(2)  -> OPTIONAL NOTE

Chords:
A5	B5	B5/F#  D5   D5/A  Eb5	E5    F#5  		 
e:-----------------------------------------------
B:-----------------------------------------------
G:--------4-----4-----7-----7-----8-----9--------
D:--7-----4-----4-----7-----7-----8-----9-----4--
A:--7-----2-----2-----5-----5-----6-----7-----4--
E:--5-----------2-----------5-----------------2--

INTRO:
       A5          B5 or B5/F#       D5 or D5/A
e:-------------------------------------------------------------
B:-------------------------------------------------------------
G:----------------4-4-4-4-4-4-4--7-7-7-7-7-7-7-7-7-7-7-7-7-7---
D:-7-7-7-7-7-7-7--4-4-4-4-4-4-4--7-7-7-7-7-7-7-7-7-7-7-7-7-7---
A:-7-7-7-7-7-7-7--2-2-2-2-2-2-2--5-5-5-5-5-5-5-5-5-5-5-5-5-5---
E:-5-5-5-5-5-5-5—(2-2-2-2-2-2-2)(5-5-5-5-5-5-5-5-5-5-5-5-5-5)--

NOTE: B5/F# AND D5/A sound better in an acoustic version,or when you’re playing with no bass.

VERSES:
     F#5          A5      F#5          A5    F#5 
e:--------------------------------------------------
B:--------------------------------------------------
G:--------------------------------------------------
D:--4--4-4--X-X-X--7-X---4--4-4--X-X-X--7-X--4-4-4-
A:--4--4-4--X-X-X--7-X---4--4-4--X-X-X--7-X--4-4-4-
E:--2--2-2--X-X-X--5-X---2--2-2--X-X-X--5-X--2-2-2-...and so on
[ Tab from: http://www.guitartabs.cc/tabs/l/lenny_kravitz/dig_in_tab_ver_4.html ]
BRIDGE:
      D5              A5
e:---------------------------------
B:---------------------------------  play this riff twice
G:-7-7-7-7-7-7-7-------------------
D:-7-7-7-7-7-7-7--7-7-7-7-7-7-7----
A:-5-5-5-5-5-5-5--7-7-7-7-7-7-7----
E:----------------5-5-5-5-5-5-5----

and play this riff in the third time:
       D5             Eb5            E5
e:---------------------------------------------------
B:---------------------------------------------------
G:-7-7-7-7-7-7-7--8-8-8-8-8-8-8--9-9-9-9-9-9-9-9\\---
D:-7-7-7-7-7-7-7--8-8-8-8-8-8-8--9-9-9-9-9-9-9-9\\---
A:-5-5-5-5-5-5-5--6-6-6-6-6-6-6--7-7-7-7-7-7-7-7\\---
E:---------------------------------------------------

CHORUS:
       A5          B5 or B5/F#       D5 or D5/A
e:-------------------------------------------------------------
B:-------------------------------------------------------------
G:----------------4-4-4-4-4-4-4--7-7-7-7-7-7-7-7-7-7-7-7-7-7---
D:-7-7-7-7-7-7-7--4-4-4-4-4-4-4--7-7-7-7-7-7-7-7-7-7-7-7-7-7---
A:-7-7-7-7-7-7-7--2-2-2-2-2-2-2--5-5-5-5-5-5-5-5-5-5-5-5-5-5---
E:-5-5-5-5-5-5-5—(2-2-2-2-2-2-2)(5-5-5-5-5-5-5-5-5-5-5-5-5-5)--

SOLO: GUITAR BACKGROUND
       A5          B5 or B5/F#       D5 or D5/A
e:-------------------------------------------------------------
B:-------------------------------------------------------------
G:----------------4-4-4-4-4-4-4--7-7-7-7-7-7-7-7-7-7-7-7-7-7---
D:-7-7-7-7-7-7-7--4-4-4-4-4-4-4--7-7-7-7-7-7-7-7-7-7-7-7-7-7---
A:-7-7-7-7-7-7-7--2-2-2-2-2-2-2--5-5-5-5-5-5-5-5-5-5-5-5-5-5---
E:-5-5-5-5-5-5-5—(2-2-2-2-2-2-2)(5-5-5-5-5-5-5-5-5-5-5-5-5-5)--

NOTE: play this riff twice; then, at the end of it, play this little part 

e:-----------------------
B:-----------------------
G:-(6-6-6-6)-------------
D:--7-7-7-7--------------
A:--7-7-7-7--------------
E:--5-5-5-5--------------


THE SONG GOES LIKE THIS:

DRUMS ONLY
INTRO X2
VERSE
BRIDGE
CHORUS X2
VERSE
BRIDGE
CHORUS X4
SOLO X2
SOLO ENDING
CHORUS (NO CHORDS, ONLY LENNY’S VOICE AND THE DRUMS) X2
CHORUS X5
ENDING: SAME RIFF YOU PLAYED AS THE SOLO ENDING
Comments