Lenny Kravitz - California Chords & Tabs

 

California Chords & Tabs

Lenny Kravitz Chords & Tabs

Version: 1 Type: Tab 0 ratings
1 star 2 stars 3 stars 4 stars 5 stars
comments

California Tab

     hi hoop you like the tab.
                    ENJOY!

                 MAINRIFF
|------------------------------------------------------------------------|
|------------------------------------------------------------------------|
|-------------------------------------------x5-5-4-4--2------------------|
|-2-2-2-2-2-2-2-6-6-6-6-6-6-6-7-7-7-7-7-7-7-x3-3-4-4--2------------------|
|-2-2-2-2-2-2-2-6-6-6-6-6-6-6-7-7-7-7-7-7-7-x3-3-2-2--0------------------|
|-0-0-0-0-0-0-0-4-4-4-4-4-4-4-5-5-5-5-5-5-5------------------------------|


               CHORUS                 BRIDGE(1.03and2.23)
[ Tab from: http://www.guitartabs.cc/tabs/l/lenny_kravitz/california_tab.html ]
|-------------------------------|----------------------------------------|
|-------------------------------|----------------------------------------|
|---------------4-4-4-4-4-4-4---|----------------------------------------|
|-4-4-4-4-4-4-4-4-4-4-4-4-4-4---|-5-5-5-5-5-5-5-7-7-7-7-7-7-7------------|
|-4-4-4-4-4-4-4-2-2-2-2-2-2-2---|-5-5-5-5-5-5-5-7-7-7-7-7-7-7------------|
|-2-2-2-2-2-2-2-----------------|-3-3-3-3-3-3-3-5-5-5-5-5-5-5------------|


            then je get this(1.07)

|-------------------------------------------------------------------------|
|-------------------------------------------------------------------------|
|-------------------------------------------------------------------------|
|-2-------------2----------2-5-5-5-5-5-5-5-7-7-7-7-7-7-7------------------|
|-2-------------2----------2-5-5-5-5-5-5-5-7-7-7-7-7-7-7------------------|
|-0-0-b3-0-b3-0-0-0b3-0-b3-0-3-3-3-3-3-3-3-5-5-5-5-5-5-5------------------|


  DO THIS ON THE END
|----------------------|
|----------------------|
|----------------------|
|-2--------------------|
|-2--THEN SLIDE WITH YOUR GUITARPICK OVER E AND D STRING
|-0--------------------

     SORRY DON'T NO THE SOLO  ENJOY!
Comments