Lenny Kravitz - Believe In Me Chords & Tabs

 

Believe In Me Chords & Tabs

Lenny Kravitz Chords & Tabs

Version: 1 Type: Tab 0 ratings
1 star 2 stars 3 stars 4 stars 5 stars
comments

Believe In Me Tab

----1/4--|--6---6/8--6--4--6/8--6----4---3h4-----------|--13--11--8h9
---------|------------------------------------4---4/6--|-------------
---------|---------------------------------------------|-------------
---------|---------------------------------------------|-------------
---------|---------------------------------------------|-------------
---------|---------------------------------------------|-------------

--8--6--4--3--4--------|
-----------------4/6---|
-----------------------|
-----------------------|
-----------------------|
-----------------------|


thats ist

thx - please, send me corrections 2:
harald.katzengruber@aon.at
[ Tab from: http://www.guitartabs.cc/tabs/l/lenny_kravitz/believe_in_me_tab.html ]
Comments