Lenny Kravitz - Always On The Run Chords & Tabs

 

Always On The Run Chords & Tabs

Lenny Kravitz Chords & Tabs

Version: 3 Type: Tab 0 ratings
1 star 2 stars 3 stars 4 stars 5 stars
comments

Always On The Run Tab

   
#----------------------------------PLEASE NOTE--------------------------------#
#This file is the author's own work and represents their interpretation of the#
#song. You may only use this file for private study, scholarship, or research.#
#-----------------------------------------------------------------------------#
#-- File created with Instab - http://www.pconline.com/~smcarey/instab.html --#
#-----------------------------------------------------------------------------#

Author/Artist: Lenny Kravitz
Title: Always On The Run
Album: n/a
Transcribed by: AceAhMetirc
Email: Whiteice24@hotmail

Class Intro, Very Fun To Play =]

------------------------------------------------------------------------------|
------------------------------------------------------------------------------|
------------------------------------------p-----------------------------------|
-----------------p---------------------5-----0--------------------------------|
--------7-----5----4------5--------------------------7------------------------|
---0------------------0-----------0--------------0----------------------------|
 Tuneing E a D G B E                                       guitar 1st intro

------------------------------------------------------------------------------|
------------------------------------------------------------------------------|
------------------------------------------------------------------------------|
-------------------p----------------------p-------------------h---------------|
-------7--------5-----4------5-----5---5-----2-----p-------0-----2------------|
--0-----------------------0----------------------3----0-----------------------|
   Both Of These Should be played with distortion and with the picking hand

------------------------------------------------------------------------------|
------------------------------------------------------------------------------|
------------------------------------------------------------------------------|
------------------------------------------------------------------------------|
------------------------------------------------------------------------------|
------------------------------------------------------------------------------|
 lightly muting the strings at the bridge...
[ Tab from: http://www.guitartabs.cc/tabs/l/lenny_kravitz/always_on_the_run_tab_ver_3.html ]
------------------------------------------------------------------------------|
------------------------------------------------------------------------------|
------------------------------------------------------------------------------|
----5----7----------------5----x-----h--------------5-----7-------------------|
--------------5----7---x-----------5---7---x---x---------------5----7---x--x--|
------------------------------------------------------------------------------|
 (Guitar 2 Intro)

-11-/--12--12--12-------------------------------------------------------------|
-11-/--12--12--12-------------------------------------------------------------|
-10-/--11--12--12-------------------------------------------------------------|
------------------------------------------------------------------------------|
------------------------------------------------------------------------------|
------------------------------------------------------------------------------|
  The second guitar finure comes in after four bars. Reminiscent of Stevie

------------------------------------------------------------------------------|
------------------------------------------------------------------------------|
------------------------------------------------------------------------------|
------------------------------------------------------------------------------|
------------------------------------------------------------------------------|
------------------------------------------------------------------------------|
 Wonder's Supertition, this should be played with the picking hand strumming

------------------------------------------------------------------------------|
------------------------------------------------------------------------------|
------------------------------------------------------------------------------|
------------------------------------------------------------------------------|
------------------------------------------------------------------------------|
------------------------------------------------------------------------------|
 thr notes and the fretting hand damping unwanted strings for a rougher

------------------------------------------------------------------------------|
------------------------------------------------------------------------------|
------------------------------------------------------------------------------|
------------------------------------------------------------------------------|
------------------------------------------------------------------------------|
------------------------------------------------------------------------------|
 sound. watch your muting!.......... Enjoy Meh First Tab dudes :)
Comments