Lenny Kravitz - Always On The Run Chords & Tabs

 

Always On The Run Chords & Tabs

Lenny Kravitz Chords & Tabs

Version: 2 Type: Tab 0 ratings
1 star 2 stars 3 stars 4 stars 5 stars
comments

Always On The Run Tab

   
Always on the run
By Lenny Kravitz, Slash

Submitted By: Frank Verwijs
Email: l.verwijs@gironet.nl

Riff:
Slash:   (I think Slash mutes some notes on the open E-string
with his thumb, not all of these are shown below)
--------------------------------- -------------------------------
--------------------------------- -------------------------------
-------------------0------------- -------------------------------
----2---0----0--.----0--2~~~~~~-- ---2---0----2--0-0-------0h2---
----------4-----5---------------- ---------4---------4-----------
-0---(0)--------0---------------- -0--(0)--------0-----0h3-------
[ Tab from: http://www.guitartabs.cc/tabs/l/lenny_kravitz/always_on_the_run_tab_ver_2.html ]
Lenny Kravitz:
---------------------------       -------------------11/12-12-12-
---------------------------       ---------------x-x-11/12-12-12-
--x---------------------x-x       --x------------x-x-11/12-12-12-
--x-5-7-----x-5-x-------x-x       --x-5-7-----x--x-x-------------
--x-----5-7-x---x-5/6/7----       --x-----5-7-x------------------
---------------------------       -------------------------------

Chorus: G5 A5 ,riff    2x

Solo: no way!!!
Try to figure it out yourself; use mainly the Bluesscale in E:

12----15          ; the solo begins around the 5th and 7th fret
12---14-15          on the E-string.................
12--14-15-16     For the fastest parts use mainly Pull-offs and
12--14           also some hammer-ons
12-13-14
12-----15        Questions or comments, write to me at
                 l.verwijs@gironet.nl
Comments