Lennon John - Well Well Well Chords & Tabs

 

Well Well Well Chords & Tabs

Lennon John Chords & Tabs

Version: 2 Type: Tab 0 ratings
1 star 2 stars 3 stars 4 stars 5 stars
comments

Well Well Well Tab

#----------------------------------PLEASE NOTE--------------------------------#
#This file is the author's own work and represents their interpretation of the#
#song. You may only use this file for private study, scholarship, or research.#
#-----------------------------------------------------------------------------#

Date: Fri, 20 Mar 1998 03:42:03 -0500
From: Chris Scharling 
Subject: TAB: 'Well Well Well' by John Lennon


                             Well Well Well          
                                  by John Lennon     
                             Tabbed by               
                                  Chris Scharling    
                          (Scharling@bigfoot.com)    

This is "Well Well Well" by John Lennon.  I think it should definately be
played with at least some distortion.  I've only tabbed the verses, since I
can't exactly figure out what he's doing during the chorus, but here it
goes!
---------------------------------------------------------------------------

Intro / solo

e]---0---0----0----0--0--0--0--0--0--------]
D]-----------------------------------------]
B]---4b5-4b5--5b4--2-----2--4--2-----------]
G]--------------------4-----------4--------]
A]-----------------------------------------]
E]-----------------------------------------]

e]--0--0--0--0----2--0--0--0--0--0---------]
D]-----------------------------------------]
B]--------2--4b5-----4--2-----2--4---------]
G]--2--4-------------------4---------------]
A]-----------------------------------------]
E]-----------------------------------------]
[ Tab from: http://www.guitartabs.cc/tabs/l/lennon_john/well_well_well_tab_ver_2.html ]
e]---0---0----0----0--0--0--0--0--0--------]
D]-----------------------------------------]
B]---4b5-4b5--5b4--2-----2--4--2-----------]
G]--------------------4-----------4--------]
A]-----------------------------------------]
E]-----------------------------------------]

e]--5--2-----------------------------------]
D]--------5--2-----------------------------]
B]--------------4-----2--4--2--------------]
G]-----------------4-----------------------]
A]-----------------------------------------]
E]-----------------------------------------]

Chorus:
Well well well
Oh well
Well well well
Oh well

(1st Verse)
e]--0---0----0----0---0---0---0--0---0---------]
D]---------------------------------------------]
B]--4b5-4b5--5b4--2-------2---4--2-------------]
G]--------------------4-------------4----------]
A]---------------------------------------------]
E]---------------------------------------------]
  I________________________ dinner

e]--0--0--0-----0---2--0--0--0----0--0---------]
D]---------------------------------------------]
B]--------2-----4b5----4--2-------2--4---------]
G]--2--4-----------------------4---------------]
A]---------------------------------------------]
E]---------------------------------------------]
    so__________________    to eat

e]---0---0------0-----0----0---0----0--0--0--------]
D]-------------------------------------------------]
B]---4b5-4b5----5b4---2--------2----4--2-----------]
G]-------------------------4--------------4--------]
A]-------------------------------------------------]
E]-------------------------------------------------]
     And_____________________________ thinner

e]-5---2----------------------------------------]
D]-------------5--2-----------------------------]
B]------------------4------2-4-----2------------]
G]---------------------4---------------4--------]
A]----------------------------------------------]
E]----------------------------------------------]
   She______________________________ her
Comments