Lennon John - Well Well Well Chords & Tabs

 

Well Well Well Chords & Tabs

Lennon John Chords & Tabs

Version: 1 Type: Tab 0 ratings
1 star 2 stars 3 stars 4 stars 5 stars
comments

Well Well Well Tab

#----------------------------------PLEASE NOTE---------------------------------#
#This file is the author's own work and represents their interpretation of the #
#song. You may only use this file for private study, scholarship, or research. #
#------------------------------------------------------------------------------##

Well Well Well  by John Lennon (Plastic Ono Band)

Important - see legend below

Intro -  (2) is played by Bass (2nd fret of 4th string)

E--0---0---0---0---0---0---0---0---0---------------------------
B--------------------------------------------------------------
G--4---4/5-4/5-4*2-----2---4---2-------------------------------
D------------------4---------------4---------------------------
A--------------------------------------------------------------
E-----------------------------(2)------(2)-------(2)etc on bass

E--0---0---0---0---2---2-------0---0---------------------------
B------------------2-------------------------------------------
G----------2---4/5----4/5*2----2---4---------------------------
D--2---4--------------------4----------------------------------
A--------------------------------------------------------------
E-----(2)------(2)etc.-----------------------------------------


E--0---0---0---0---0---0---0---0---0---------------------------
B--------------------------------------------------------------
G--4/5-4/5-4/5-4*2-0!--2---4---2------(!) oops, John missed it!
D-----------------(4)--------------4---------------------------
A--------------------------------------------------------------
E-----(2)------(2)etc.-----------------------------------------
[ Tab from: http://www.guitartabs.cc/tabs/l/lennon_john/well_well_well_tab.html ]
                                                          A / /
E--5---2-------------------------------------------------------
B----------5---------------------------------------------------
G-------------4/6*4*2------2---4---2---------------------------
D----------------------4--------------------------4---3---2----
A--------------------------------------------------------------
E---------------------------------(2)--(2)--(2)--(2)-----------
                                                well well well

 /  F#m  /  /  /         A  /  /  /   F#m  /   /   /
oh well       well well well      oh  well

VERSE
E--0---0---0---0-----0---0---0---0--0----
B----------------------------------------
G--4---4/5-4/5-4*2-------2---4---2-------
D--------------------4--------------4----
   I__________________________ din-ner


E--0---0---0-----0---2---2-------0---0---
B--------------------2-------------------
G----------2----4/5----4/5*2-----2---4---
D--2---4---------------------4-----------
   So___________________  e--eat


E--0---0----0---0---0---0----0----0---0------
B--------------------------------------------
G--4/6-4/5--4---2-------2----4----2----------
D-------------------4-----------------4------
   And tho______________________ thinner

E--5----2-------------------------------------
B-------------5-------------------------------
G-----------------4*2------2----4----2--------  
D----------------------4----------------(4)---
  She__________________________________ her    

A/// to F#m/// many times
Well well well oh well  -  (your best primal screams)



legend  
--4/5--means play the 4th fret of the indicated string and bend until it
       sounds approximately like the same string fretted at the 5th fret

--4*2-- indicates a pull-off (fret 4 to fret 2 on same string)

--(4)--numbers in () - careful, sometimes these are not played

In this tune, some of these are used in close proximity, so be careful.

L. Golden is the greatest! Thanks so much for the lyrics, t
Comments