Lennon John - Out Of The Blue (demo) Chords & Tabs

 

Out Of The Blue (demo) Chords & Tabs

Lennon John Chords & Tabs

Version: 1 Type: Chords 0 ratings
1 star 2 stars 3 stars 4 stars 5 stars
comments

Out Of The Blue (demo) Chords

   
 #----------------------------------PLEASE NOTE---------------------------------#
#This file is the author's own work and represents their interpretation of the #
#song. You may only use this file for private study, scholarship, or research. #
#------------------------------------------------------------------------------##

A couple of tricky chords - work on them and they will get easier!

Out the Blue by John Lennon
Tabber: Unknown

INTRO
   G         A          D   D+/A# Bm   F#
E [---- ---- ---- ----][5--- 2--- ---- ----]
B [0--- --0- 2--- --2-][--7- --3- 3--- 2---]
G [---- 0--- ---- 2---][---- ---- --4- --3-]
D [--0- ---- --2- ----][0--- ---- ---- ----]
A [---- ---- 0--- ----][---- 1--- 2--- ----]
E [3--- ---- ---- ----][---- ---- ---- 2---]

   G         A          Cadd9
E [---- ---- ---- ----][---- ---- 0--- ----]
B [0--- -0-- 2--- -2--][---- --3- --3- ----]
G [---0 ---- ---2 ----][---- 0--- ---- 0---]
D [--0- --0- --2- --2-][--2- ---- ---- --2-]
A [---- ---- 0--- 0---][3--- ---- ---- ----]
E [3--- 3--- ---- ----][---- ---- ---- ----]
[ Tab from: http://www.guitartabs.cc/tabs/l/lennon_john/out_of_the_blue_demo_crd.html ]
VERSE ONE
   C         D          G         F#7  
E [---- ---- 2--- --2-][3--- ---- ---- --0-]
B [---- --1- ---- 3---][---- -0-- ---- ----]
G [---- 0--- --2- ----][---0 ---- 3-4- 6---]
D [--2- ---- 0--- ----][--0- --0- ---- ----]
A [3--- ---- ---- ----][---- ---- ---- ----]
E [---- ---- ---- ----][3--- 3--- 2-4- 6---](cue words only
   Out...    blue    ...me                  full text below)

   Bm        Bm         F#            F#7/A#
E [---- ---- ---- ----][---- ---- ---- 0---]
B [3--- -3-- 7--- -7--][---- 543* 2--- --2-]*triplet
G [---4 ---- ---7 ----][3--- ---- --3- ----]
D [--4- --4- --9- --9-][---- ---- ---- ----]
A [2--- 2--- 0--- 0---][---- ---- ---- 1---]
E [---- ---- ---- ----][2--- ---- 3--- ----]
     anĀ¹ blew..   myste-ry
   G         A          D   D+/A# Bm   F#
E [---- ---- ---- ----][5--- 2--- ---- ----]
B [3--- --3- 2--- --2-][--7- --3- 3--- 2---]
G [---0 ---- ---2 ----][---- ---- --4- --3-]
D [--0- ---0 --2- ---2][0--- ---- ---- ----]
A [---- ---- 0--- 0---][---- 1--- 2--- ----]
E [3--- 3--- ---- ----][---- ---- ---- 2---]
        Out  blue  ener-gy...
   G         A          Cadd9
E [---- ---- ---- ----][0--- ---- ---- ----]
B [0--- -0-- 2--- -2--][3--- ---- ---- ----]
G [---0 ---- ---2 ----][0--- ---- ---- ----]
D [--0- --0- --2- --2-][2--- ---- ---- ----]
A [---- ---- 0--- 0---][3--- ---- ---- ----]
E [3--- 3--- ---- ----][---- ---- ---- ----]
   Out       blue       me
Comments