Lennon John - Mirror Mirror On The Wall Chords & Tabs

 

Mirror Mirror On The Wall Chords & Tabs

Lennon John Chords & Tabs

Version: 1 Type: Tab 0 ratings
1 star 2 stars 3 stars 4 stars 5 stars
comments

Mirror Mirror On The Wall Tab

   
#----------------------------------PLEASE NOTE---------------------------------#
#This file is the author's own work and represents their interpretation of the #
#song. You may only use this file for private study, scholarship, or research. #
#------------------------------------------------------------------------------##

Composer(Lyrics and Music): John Lennon
                             Song: Mirror Mirror On The Wall (Demo)
                      Tabs and Chords by: Christian Kupka (Austria)


---------------------------------------GUITARTABS--------------------------------------------||

Guitartabs:

-->Intro (and Outro):

E |-2--3--5-|-3--3--3-|-3--3--3-|-0--0--0-|-2--3--5-|-5--5--5-|-5--5--5-|-5--5--5-|-5--5--5-|   
B |-3--3--3-|-3--3--3-|-3--3--3-|-0--0--0-|-3--3--3-|-5--5--5-|-5--5--5-|-5--5--5-|-5--5--5-|
G |-2-------|-4--4--4-|-4--4--4-|-0--0--0-|-2-------|-5--5--5-|-5--5--5-|-5--5--5-|-5--5--5-|
D |-0--2--4-|-5-----5-|-4-----4-|-2-----2-|-0--2--4-|-7-----7-|-5-----5-|-4-----4-|-4--4--4-|
A |---------|---------|---------|---------|---------|---------|---------|---------|---------|
E |---------|---------|---------|---------|---------|---------|---------|---------|---------|

E |-1--1--1-|-1--1--1-|-0--0--0-|-0--0--0-|-2--2--2-|  
B |-1--1--1-|-1--1--1-|-0--0--0-|-0--0--0-|-3--3--3-|
G |-2--2--2-|-2--2--2-|-2--2--2-|-2--2--2-|-2--2--2-|
D |---------|-3-------|---------|-2-------|-0-------|
A |---------|---------|---------|---------|---------|
E |-1-------|---------|-0-------|---------|---------|


|---------------------------------------------------------------------------------------------|

-->During verse:


E |-2--3--5-|-3--3--3-|-2--2--2-|-0--0--0-|-0--0--0-|-0--0--0-|-0--0--0-|-0--0--0-|-0--0--0-|   
B |-3--3--3-|-3--3--3-|-3--3--3-|-0--0--0-|-0--0--0-|-1--1--1-|-1--1--1-|-1--1--1-|-1--1--1-|
G |-2-------|-0--0--0-|-2--2--2-|-0--0--0-|-0--0--0-|-2--2--2-|-2--2--2-|-2--2--2-|-2--2--2-|
D |-0--2--4-|---------|---------|---------|-0-----0-|---------|---------|---------|---------|
A |---------|---------|---------|---------|---------|-0-----0-|---------|---------|---------|
E |---------|-3-----3-|-2-----2-|-0-----0-|---------|---------|-3-----3-|-2-------|-2--2--2-|

E |-1--1--1-|-1--1--1-|-0--0--0-|-2--2--2-|-2--2--2-|  
B |-1--1--1-|-1--1--1-|-0--0--0-|-3--3--3-|-3--3--3-|
G |-2--2--2-|-2--2--2-|-2--2--2-|-2--2--2-|-2--2--2-|
D |---------|---------|---------|-0-------|-0-------|
A |---------|---------|---------|---------|---------|
E |-1-------|-1-------|-0-------|---------|---------|
[ Tab from: http://www.guitartabs.cc/tabs/l/lennon_john/mirror_mirror_on_the_wall_tab.html ]
E |-2--3--5-|-3--3--3-|-2--2--2-|-0--0--0-|-0--0--0-|-0--0--0-|-0--0--0-|-0--0--0-|-0--0--0-|   
B |-3--3--3-|-3--3--3-|-3--3--3-|-0--0--0-|-0--0--0-|-1--1--1-|-1--1--1-|-1--1--1-|-1--1--1-|
G |-2-------|-0--0--0-|-2--2--2-|-0--0--0-|-0--0--0-|-2--2--2-|-2--2--2-|-2--2--2-|-2--2--2-|
D |-0--2--4-|---------|---------|---------|-0-----0-|---------|---------|---------|---------|
A |---------|---------|---------|---------|---------|-0-----0-|---------|---------|---------|
E |---------|-3-----3-|-2-----2-|-0-----0-|---------|---------|-3-----3-|-2-----2-|-2--2--2-|

E |-1--1--1-|-1--1--1-|-0--0--0-|-0--0--0-|  
B |-1--1--1-|-1--1--1-|-1--1--1-|-0--1--3-|
G |-2--2--2-|-2--2--2-|-1--1--1-|-1--1--1-|
D |---------|---------|---------|---------|
A |---------|---------|---------|---------|
E |-1-------|-1-------|-0-------|-0-------|


|--------------------------------------------------------------------------------------------|

-->Bridge:

E |-0--0--0-|-0--0--0-|-0--0--0-|-0--0--0-|   
B |-1--1--1-|-1--3--1-|-0--0--0-|-0--1--3-|
G |-2--2--2-|-2--2--2-|-1--1--1-|-1--1--1-|
D |---------|---------|---------|---------|
A |-0-------|-0-------|---------|---------|
E |---------|---------|-0-------|-0-------|x2


E |-0--0--0-|-3--1--3-|-0--0--0-|-3--1--0-|   
B |-1--1--1-|-1--1--1-|-1--1--1-|-1--1--1-|
G |-2--2--2-|-2--2--2-|-0--0--0-|-0--0--0-|
D |---------|---------|---------|---------|
A |-0-------|-0-------|-3-------|-3-------|
E |---------|---------|---------|---------|

E |-3--3--3-|-3--0--3-|-0--0--0-|-3--1--0-|   
B |-3--3--3-|-3--3--3-|-1--1--1-|-1--1--1-|
G |-0--0--0-|-0--0--0-|-0--0--0-|-0--0--0-|
D |---------|---------|---------|---------|
A |---------|---------|-3-------|-3-------|
E |-3-------|-3-------|---------|---------|x2

E |-0--0--0-|-0--0--0-|-0--0--0-|-0--0--0-|   
B |-1--1--1-|-1--3--1-|-0--0--0-|-0--1--3-|
G |-2--2--2-|-2--2--2-|-1--1--1-|-1--1--1-|
D |---------|---------|---------|---------|
A |-0-------|-0-------|---------|---------|
E |---------|---------|-0-------|-0-------|x2

E |-3--3--3-|-3--0--3-|-0--0--0-|-3--1--0-|   
B |-3--3--3-|-3--3--3-|-1--1--1-|-1--1--1-|
G |-0--0--0-|-0--0--0-|-0--0--0-|-0--0--0-|
D |---------|---------|---------|---------|
A |---------|---------|-3-------|-3-------|
E |-3-------|-3-------|---------|---------|x2


---------------------------------------------CHORDS-------------------------------------------||

Chords:

D     {xx0232}
G     {320001}
D/F#  {200232}
Em    {022000}
E/D   {xx0000}
Am    {x02210}
Am/G  {3x2210}
Am/F# {2x2210}
F     {133211}
Esus4 {022200}
E     {022100}
Eaug  {022110}
Comments