Lennon John - Imagine Chords & Tabs


Imagine Chords & Tabs

Lennon John Chords & Tabs

Version: 1 Type: Chords 3 ratings
1 star 2 stars 3 stars 4 stars 5 stars

Imagine Chords

#----------------------------------PLEASE NOTE---------------------------------#
#This file is the author's own work and represents their interpretation of the #
#song. You may only use this file for private study, scholarship, or research. #

Song: Imagine
Author: John Lennon
Tab By: Jay V (m.Jason@bboard.com)

* Here you go, y'all at guitartabs.cc. A couple of people threw out tabs for
  "Imagine," so I thought I'd do the same. I play the song, and people don't
  mind that it's on guitar. This is how *I* play it. Slight differences from
  the other tab(s) found here on this site, but I don't try to closely match
  a piano on a guitar. They're not the same instrument, so you gotta make up
  a new way to play it.

  Anyways, let's see what weird stuff I got here... chords are slightly diff
  on the guitar from the piano... this one may be easier to play... for Riff
  C and Riff D I added dumb 'v' and '^' marks to show how I strum them,  and
  some chords are missing 'cuz I couldn't fit them above the lines.

  In Riff C if you prefer to just slide your fingers up to play a big G(III)
  chord, go ahead. It's an option. Also, for Riff D, if you don't like barre
  chords ... well, can't do anything about the F... but you can play an open
  G intead if you like. Not a big deal at all.  I interchange G's and what I
  called a G5 in here,  and the barred G, depending on my mood at the time,
  so I guess you can too. Have fun, and think about life with no boundaries.
  It's fun and it frees up your mind and spirit. -mjv 

[ Tab from: http://www.guitartabs.cc/tabs/l/lennon_john/imagine_crd.html ]
  Riff A                               Riff A (alternate)
   C                 F                 C                 F
e -----------------|-----------------|-----------------|-----------------|
B -------------0---|-1---1---1-----0-|-------------0---|---------------0-|
G -0---0---0---0---|-2---2---2--2h3--|-0---0---0---0---|-2---2---2--2h3--|
D -2---2---2---2---|-3---3---3-------|-2---2---2---2---|-3---3---3-------|
A ---3---3---3---3-|---3---3---3-----|---3---3---3---3-|---3---3---3-----|
E -----------------|-----------------|-----------------|-----------------|

   Riff B
   F       Am        Dm                G5      C(add9) G
e -----------------|-1---1-1h3-3-2---|-3---3-3-3---3-3-|(3)--------------|
B -1---1---1---1---|-3---3-3-3-3-3---|-3---3-3-3---3-3-|(3)--------------|
G -2---2---2---2---|-2---2-2-2-2-2---|-0---0-0-0---0-0-|(0)--------------|
D -3---3---2---2---|---0--------0--0-|-0---0-0-0---2-0-|(0)--------------|
A ---3---3---0---0-|-----------------|-2-2-2--2--2-3-2-|(2)--------------|
E -----------------|-----------------|-3-3-3--3--3---3-|(3)--------------|

   Riff C                              Riff D
   v   v v^v ^ v v^          v v v v^  v   v v^v ^ v v^  v   v v^v ^ v ^
   F       G         C       E   E7    F       G(III)    C
e -1-------3-------|-0---0-0-0---0---|-1-------3-------|-3-------0---0---|
B -1-------0-------|-1---0-1-0---3---|-1-------3-------|-1-------3---1---|
G -2-------0-------|-0---0-0-1---1---|-2-------4-------|-0-------0---0---|
D -3-------0-------|-2---2-2-2---2---|-3-------5-------|-2-------2---2---|
A -3-------2-------|-3-3-3-3-2---2---|-3-------5-------|-3-------3---3---|
E -1-------3-------|---------0---0---|-1-------3-------|-----------------|