Lennon John - Crippled Inside Chords & Tabs

 

Crippled Inside Chords & Tabs

Lennon John Chords & Tabs

Version: 1 Type: Tab 0 ratings
1 star 2 stars 3 stars 4 stars 5 stars
comments

Crippled Inside Tab

   
#----------------------------------PLEASE NOTE---------------------------------#
#This file is the author's own work and represents their interpretation of the #
#song. You may only use this file for private study, scholarship, or research. #
#------------------------------------------------------------------------------##
Date: 06 Aug 95 23:27:51 EDT
From: Rob Keister 
Subject: TAB:  Crippled Inside, John Lennon

Sun, 6 Aug, 1995

Here'e the way I play "Crippled Inside" by John Lennon.


chord fingerings for intro:

    EADGBE
    ------
C1  032010
C2  xxx553
G2  xx5433
F1  xx3211
F3  xx7565
Bb2 xx8766


Intro:
   C1                           C1    G2 F1  C1 
E|-------0--------------------|-------3--1---0------0-------|
B|-1-------1---3-----3s5--3---|-1--------------1------1-----|
G|---0---0-------0------------|---0---4--2-------0----------|
D|-2-----------3-----3s5--3---|-2---------------------------|
A|----------------------------|--------------3--------------|
E|----------------------------|-----------------------------|

   F1    C2    F3    Bb2    F3    C2    F1      G2
E|-1-----3-----5-----6----|-5-----3-----1----------3--------|
B|---1-----5-----6-----6--|---6-----5-----1-----------3-----|
G|-2-----5-----5-----7----|-5-----5-----2-----2s4-----------|
D|------------------------|---------------------------------|
A|------------------------|---------------------------------|
E|------------------------|---------------------------------|

     
E|---0------0------0---------0--|---0---------------0-----0-----|
B|---1------1------1---------1--|---1---------------1-----1-----|
G|---0------0------0---------0--|---0---------------0-----0-----|
D|---2------2------2---0-1-2----|---2-----2-1-0-----2-----2-----|
A|-3-------------3--------------|-------3---------3-------------|
E|--------3---------------------|-3----------------------3------|

E|----------------|
B|----------------|
G|----------------|
D|----------------|
A|-3-----0--2--3--|
E|----3-----------|


Verse:
[ Tab from: http://www.guitartabs.cc/tabs/l/lennon_john/crippled_inside_tab.html ]
   C                                        C7
E|---0------0------0----0--|---0------------0-----|
B|---1------1------1----1--|---1------------1-----|
G|---0------0------0----0--|---0------------3-----|
D|---2------2------2----2--|---2---0--1--2--2-----|
A|-3-------------3---------|-3--------------3-----|
E|--------3-----------3----|----------------------|


   F
E|---1------1------1----1--|----1-----1------------------------------|
B|---1------1------1----1--|----1-----1------------------------------|
G|---2------2------2----2--|----2-----2------------------------------|
D|-3--------3----3------3--|--3-------3---3-3--2--0------------------|
A|--------3-----------3----|--------3--------------------------------|
E|-------------------------|-----------------------------------------|


   C                                        A7
E|---0------0------0----0--|----------------0-----|
B|---1------1------1----1--|----------------2-----|
G|---0------0------0----0--|----------------0-----|
D|---2------2------2----2--|----------------2-----|
A|-3-------------3---------|-3--3--2--1--0--0-----|
E|--------3-----------3----|----------------------|


   D            G     G7       C
E|---2------2-----3-----1---|----0-----0--------------------|
B|---3------3-----0-----0---|----1-----1--------------------|
G|---2------2-----0-----0---|----0-----0--------------------|
D|-0--------0-----0-----0---|----2-----2--------------------|
A|--------0-------2-----2---|--3-----------3--3--2--1--0----|
E|--------------3-----3-----|--------3----------------------|



Outro:

C  F  Adim  G  G6  C7

        EADGBE
        ------
C       032010
F       133211
Adim    001212
G       320001
G6      320000
C7      032310


+-------------------------+    _  _      _  _      _  _      _  _
|Rob Keister              |   / T/ A    / G/ C    / T/ A    / A/ T 
|Forensic Scientist       |  G  C\  \  C  G\  \  T  A\  \  G  C\  \  T  A
|70711.2310@compuserve.com| /  /  A  T/  /  T  A/  /  A  T/  /  C  G/  /
+-------------------------+A  T    \_G\_C    \_C\_G    \_G\_C    \_C\_G


Comments