Lennon - Brake Of Your Car Chords & Tabs

 

Brake Of Your Car Chords & Tabs

Lennon Chords & Tabs

Version: 1 Type: Bass Tab 0 ratings
1 star 2 stars 3 stars 4 stars 5 stars
comments

Brake Of Your Car Bass Tab

   
Lennon - Brake Of Your Car
Tabbed By: Karen Pinto but bass teacher tabbed it
EMail: prettyhate87@yahoo.com


ok again my bass teacher bobby tabbed this, there ain't many 
lennon tabs out there so i am posting them. don't give credit to me at all!!!
[ Tab from: http://www.guitartabs.cc/tabs/l/lennon/brake_of_your_car_btab.html ]
this is what you need to know
this is intro/verse
g|-----------
d|-----------
a|-----------
e|0-0--0h3h5-

chorus:
g|-------|--------|
d|-------|--------|
a|-------|--------|
e|-3--5*-|3--5--1-|
*=strum

bridge:
g|-------------|
d|-----------2-|
a|-------0h2---|
e|-0-0h3-------|

then at 1:48
e|-1

that's all you need to know!!!
Comments