Lene Marlin - You Werent There Chords & Tabs

 

You Werent There Chords & Tabs

Lene Marlin Chords & Tabs

Version: 1 Type: Bass Tab 0 ratings
1 star 2 stars 3 stars 4 stars 5 stars
comments

You Werent There Bass Tab

Lene Marlin - You Weren't There

Verse:
G|------------------------------------------------------|
D|--------------1-2-------------------1-2---------------|
A|-2---------2-4---------2---------2-4------------------|
E|---0-0--2-4------4-0>>---0-0--2-4------4-4-2-2-2-2222-|
[ Tab from: http://www.guitartabs.cc/tabs/l/lene_marlin/you_werent_there_btab.html ]
Chorus:
G|------------------------------------------------------------------------|
D|--------------------------------------------------------1-12-22-2-2-1---|
A|----------2-2-4-44-4-44-2----------------------24-44-4-4-------2-----2--|
E|-0-00-00-0--------4------4-44-24-44-42-22-22-22-----4-----------------4-|

Bridge:
G|----------------------------------------------------|
D|----------------------------------------------------|
A|-------------------------4-44-4---------------------|
E|-4-44-42-22-20-00-00-00-0------2-22-2-000-00-000000-|
Comments