Len - Candy Pop Chords & Tabs

 

Candy Pop Chords & Tabs

Len Chords & Tabs

Version: 1 Type: Bass Tab 0 ratings
1 star 2 stars 3 stars 4 stars 5 stars
comments

Candy Pop Bass Tab

   
Artist:Len
Title:Candy Pop
Album:Superstar
[ Tab from: http://www.guitartabs.cc/tabs/l/len/candy_pop_btab.html ]
Verse(0:08 or so)(x2)
G:-------------------------
D:-------------------------
A:-----------7-7-9-9-5-5---
E:5-5-5-7-7-7-----------9-9
Then Verse 2-1(x2)
G:-------------------------
D:-------------------------
A:-------------------------
E:5-5-5-5-5-7-7-7-7-5-5-5-5
Then Chorus(x2)
G:-------------------------
D:-------------------------
A------------7-7-9-9-5-5---
E:5-5-5-7-7-7-----------9-9
Then Bridge:
G:-------------------------
D:-------------------------
A:-------------------------
E:5-5-5-5-5-7-7-7-7-3-3-3-3
Then back to verse for 2 times
Then Verse 2-1 2 times
Then chorus 2 times
Then bridge once
Then Verse for two times
Then play this right after the verse:
G:-------------------------
D:-------------------------
A:-------------------------
E:5-5-5-5-5-7-7-7-7-3-3-3-3
Then..
G:-------------------------
D:-------------------------
A:-------------------------
E:9-9-9-9-9-7-7-7-7-5-5-5-5
Then break for a bit and then come
back to the chorus for 3 times when Marc says "That I.."
Then after that play until the bass fades out:
G:-------------------------
D:-------------------------
A:-------------------------
E:5-5-5-5-5-7-7-7-7-5-5-5-5

Questions,comments,beef? Drop me a line at gtsrmike@yahoo.com
Note:I tabbed this off a bad recording so please excuse any possible errors.
Comments