Lemonheads - Sad Girl Chords & Tabs

 

Sad Girl Chords & Tabs

Lemonheads Chords & Tabs

Version: 1 Type: Tab 0 ratings
1 star 2 stars 3 stars 4 stars 5 stars
comments

Sad Girl Tab

   
#----------------------------------PLEASE NOTE---------------------------------#
#This file is the author's own work and represents their interpretation of the #
#song. You may only use this file for private study, scholarship, or research. #
#------------------------------------------------------------------------------##
Sad Girl - Lemonheads.                                                                               

This song is from the Lemonheads finest album to date 'lick'.
It has two parts, the first part is played at medium tempo, the
second part is played really fast.

most of the lyrics are missing as i cant make them out.
Ive put ???????? where there are missing lyrics,  If anyone knows 
any of the missing lyrics, please post them or mail them to me!!!!


PART 1.

Intro:
                 
                                            
    B            A            G            A
E-|-7-7-7-7-7----5-5-5-5-5----3-3-3-3-3----5-5-5-5-5--|
B-|-7-7-7-7-7----5-5-5-5-5----3-3-3-3-3----5-5-5-5-5--|
G-|-8-8-8-8-8----6-6-6-6-6----4-4-4-4-4----6-6-6-6-6--|
D-|-9-9-9-9-9----7-7-7-7-7----5-5-5-5-5----7-7-7-7-7--|
A-|-9-9-9-9-9----7-7-7-7-7----5-5-5-5-5----7-7-7-7-7--|
E-|-7-7-7-7-7----5-5-5-5-5----3-3-3-3-3----5-5-5-5-5--|

    B            A            G            A
E-|-7-7-7-7-7----5-5-5-5-5----3-3-3-3-3----5-5-5-5-5--|
B-|-7-7-7-7-7----5-5-5-5-5----3-3-3-3-3----5-5-5-5-5--|
G-|-8-8-8-8-8----6-6-6-6-6----4-4-4-4-4----6-6-6-6-6--|
D-|-9-9-9-9-9----7-7-7-7-7----5-5-5-5-5----7-7-7-7-7--|
A-|-9-9-9-9-9----7-7-7-7-7----5-5-5-5-5----7-7-7-7-7--|
E-|-7-7-7-7-7----5-5-5-5-5----3-3-3-3-3----5-5-5-5-5--|
                                                                               

Verse 1:

    B            A            G            A
    ??????????????                  ?????????????
E-|-7-7-7-7-7----5-5-5-5-5----3-3-3-3-3----5-5-5-5-5--|
B-|-7-7-7-7-7----5-5-5-5-5----3-3-3-3-3----5-5-5-5-5--|
G-|-8-8-8-8-8----6-6-6-6-6----4-4-4-4-4----6-6-6-6-6--|
D-|-9-9-9-9-9----7-7-7-7-7----5-5-5-5-5----7-7-7-7-7--|
A-|-9-9-9-9-9----7-7-7-7-7----5-5-5-5-5----7-7-7-7-7--|
E-|-7-7-7-7-7----5-5-5-5-5----3-3-3-3-3----5-5-5-5-5--|

    B            A            G            A
     see you checked all round,   made sure it was cool
E-|-7-7-7-7-7----5-5-5-5-5----3-3-3-3-3----5-5-5-5-5--|
B-|-7-7-7-7-7----5-5-5-5-5----3-3-3-3-3----5-5-5-5-5--|
G-|-8-8-8-8-8----6-6-6-6-6----4-4-4-4-4----6-6-6-6-6--|
D-|-9-9-9-9-9----7-7-7-7-7----5-5-5-5-5----7-7-7-7-7--|
A-|-9-9-9-9-9----7-7-7-7-7----5-5-5-5-5----7-7-7-7-7--|
E-|-7-7-7-7-7----5-5-5-5-5----3-3-3-3-3----5-5-5-5-5--|


chorus

    Bminor          A
    but you dont even know your name, 
E-|-4-4-4-4-4-4-----5-5-5-5-5-5--|
B-|-5-5-5-5-5-5-----5-5-5-5-5-5--|
G-|-6-6-6-6-6-6-----6-6-6-6-6-6--|
D-|-6-6-6-6-6-6-----7-7-7-7-7-7--|
A-|-4-4-4-4-4-4-----7-7-7-7-7-7--|
E-|-4-4-4-4-4-4-----5-5-5-5-5-5--|
                                                                              
    Bminor          A
    you should bow your head in shame
E-|-4-4-4-4-4-4-----5-5-5-5-5-5--|
B-|-5-5-5-5-5-5-----5-5-5-5-5-5--|
G-|-6-6-6-6-6-6-----6-6-6-6-6-6--|
D-|-6-6-6-6-6-6-----7-7-7-7-7-7--|
A-|-4-4-4-4-4-4-----7-7-7-7-7-7--|
E-|-4-4-4-4-4-4-----5-5-5-5-5-5--|
                                                                               

    B               A
     but you say thats its alright,
E-|-7-7-7-7-7-7-----5-5-5-5-5-5--|
B-|-7-7-7-7-7-7-----5-5-5-5-5-5--|
G-|-8-8-8-8-8-8-----6-6-6-6-6-6--|
D-|-9-9-9-9-9-9-----7-7-7-7-7-7--|
A-|-9-9-9-9-9-9-----7-7-7-7-7-7--|
E-|-7-7-7-7-7-7-----5-5-5-5-5-5--|
                                                                               
    B               A
     youll go out another night
E-|-7-7-7-7-7-7-----5-5-5-5-5-5--|
B-|-7-7-7-7-7-7-----5-5-5-5-5-5--|
G-|-8-8-8-8-8-8-----6-6-6-6-6-6--|
D-|-9-9-9-9-9-9-----7-7-7-7-7-7--|
A-|-9-9-9-9-9-9-----7-7-7-7-7-7--|
E-|-7-7-7-7-7-7-----5-5-5-5-5-5--|
                                                                               
[ Tab from: http://www.guitartabs.cc/tabs/l/lemonheads/sad_girl_tab.html ]
    E             A     B        E             A     A#
    your a sad girl              ?????????????
E-|-X-X-X-X-X-X---5-X---7-7-7----X-X-X-X-X-X---5-X---6-6-6--|
B-|-X-X-X-X-X-X---5-X---7-7-7----X-X-X-X-X-X---5-X---6-6-6--|
G-|-1-1-1-1-1-1---6-X---8-8-8----1-1-1-1-1-1---6-X---7-7-7--|
D-|-2-2-2-2-2-2---7-X---9-9-9----2-2-2-2-2-2---7-X---8-8-8--|
A-|-2-2-2-2-2-2---7-X---9-9-9----2-2-2-2-2-2---7-X---8-8-8--|
E-|-0-0-0-0-0-0---5-X---7-7-7----0-0-0-0-0-0---5-X---6-6-6--|
                                                                               
    E             A     B        E             A     A#
    your a sad girl              ?????????????
E-|-X-X-X-X-X-X---5-X---7-7-7----X-X-X-X-X-X---5-X---6-6-6--|
B-|-X-X-X-X-X-X---5-X---7-7-7----X-X-X-X-X-X---5-X---6-6-6--|
G-|-1-1-1-1-1-1---6-X---8-8-8----1-1-1-1-1-1---6-X---7-7-7--|
D-|-2-2-2-2-2-2---7-X---9-9-9----2-2-2-2-2-2---7-X---8-8-8--|
A-|-2-2-2-2-2-2---7-X---9-9-9----2-2-2-2-2-2---7-X---8-8-8--|
E-|-0-0-0-0-0-0---5-X---7-7-7----0-0-0-0-0-0---5-X---6-6-6--|
                                                                               
Verse 2:

As above, cant make out any of the lyrics except - 

'...you got a reason to be on the pill' 
  --> (where '...made sure it was cool' is above)

                                       

Then play -

     C#                     C                     B               G
E-|--9--9--9--9--9--9--9----8--8--8--8--8--8--8---7-7-7-7-7-7-7---3--|
B-|--9--9--9--9--9--9--9----8--8--8--8--8--8--8---7-7-7-7-7-7-7---3--|let
G-|-10-10-10-10-10-10-10----9--9--9--9--9--9--9---8-8-8-8-8-8-8---4--|ring
D-|-11-11-11-11-11-11-11---10-10-10-10-10-10-10---9-9-9-9-9-9-9---5--|    
A-|-11-11-11-11-11-11-11---10-10-10-10-10-10-10---9-9-9-9-9-9-9---5--|
E-|--9--9--9--9--9--9--9----8--8--8--8--8--8--8---7-7-7-7-7-7-7---3--|
                                                                               
                                                                               
PART 2.  Played a lot faster!!!

     F#                 G        D
E-|--9--9--9--9--9--9---10---x---10-10-10--|
B-|--9--9--9--9--9--9---10---x---10-10-10--|
G-|-11-11-11-11-11-11---12---x---11-11-11--|
D-|-11-11-11-11-11-11---12---x---12-12-12--|
A-|-11-11-11-11-11-11---12---x---12-12-12--|
E-|--9--9--9--9--9--9---10---x---10-10-10--|
                                                                               
     F#                 G        D
E-|--9--9--9--9--9--9---10---x---10-10-10--|
B-|--9--9--9--9--9--9---10---x---10-10-10--|
G-|-11-11-11-11-11-11---12---x---11-11-11--|
D-|-11-11-11-11-11-11---12---x---12-12-12--|
A-|-11-11-11-11-11-11---12---x---12-12-12--|
E-|--9--9--9--9--9--9---10---x---10-10-10--|

     F#                 G        D
E-|--9--9--9--9--9--9---10---x---10-10-10--|
B-|--9--9--9--9--9--9---10---x---10-10-10--|
G-|-11-11-11-11-11-11---12---x---11-11-11--|
D-|-11-11-11-11-11-11---12---x---12-12-12--|
A-|-11-11-11-11-11-11---12---x---12-12-12--|
E-|--9--9--9--9--9--9---10---x---10-10-10--|

     F#                 G        D
E-|--9--9--9--9--9--9---10---x---10-10-10--|
B-|--9--9--9--9--9--9---10---x---10-10-10--|
G-|-11-11-11-11-11-11---12---x---11-11-11--|
D-|-11-11-11-11-11-11---12---x---12-12-12--|
A-|-11-11-11-11-11-11---12---x---12-12-12--|
E-|--9--9--9--9--9--9---10---x---10-10-10--|

     C#                     C                     B               G
E-|--9--9--9--9--9--9--9----8--8--8--8--8--8--8---7-7-7-7-7-7-7---3--|
B-|--9--9--9--9--9--9--9----8--8--8--8--8--8--8---7-7-7-7-7-7-7---3--|let
G-|-10-10-10-10-10-10-10----9--9--9--9--9--9--9---8-8-8-8-8-8-8---4--|ring
D-|-11-11-11-11-11-11-11---10-10-10-10-10-10-10---9-9-9-9-9-9-9---5--|    
A-|-11-11-11-11-11-11-11---10-10-10-10-10-10-10---9-9-9-9-9-9-9---5--|
E-|--9--9--9--9--9--9--9----8--8--8--8--8--8--8---7-7-7-7-7-7-7---3--|


    E             A     B        E             A     A#
    sad girl                     sad girl
E-|-X-X-X-X-X-X---5-X---7-7-7----X-X-X-X-X-X---5-X---6-6-6--|
B-|-X-X-X-X-X-X---5-X---7-7-7----X-X-X-X-X-X---5-X---6-6-6--|
G-|-1-1-1-1-1-1---6-X---8-8-8----1-1-1-1-1-1---6-X---7-7-7--|
D-|-2-2-2-2-2-2---7-X---9-9-9----2-2-2-2-2-2---7-X---8-8-8--|
A-|-2-2-2-2-2-2---7-X---9-9-9----2-2-2-2-2-2---7-X---8-8-8--|
E-|-0-0-0-0-0-0---5-X---7-7-7----0-0-0-0-0-0---5-X---6-6-6--|


    E             A     B        E             A     A#
    sad girl                     sad girl
E-|-X-X-X-X-X-X---5-X---7-7-7----X-X-X-X-X-X---5-X---6-6-6--|
B-|-X-X-X-X-X-X---5-X---7-7-7----X-X-X-X-X-X---5-X---6-6-6--|
G-|-1-1-1-1-1-1---6-X---8-8-8----1-1-1-1-1-1---6-X---7-7-7--|
D-|-2-2-2-2-2-2---7-X---9-9-9----2-2-2-2-2-2---7-X---8-8-8--|
A-|-2-2-2-2-2-2---7-X---9-9-9----2-2-2-2-2-2---7-X---8-8-8--|
E-|-0-0-0-0-0-0---5-X---7-7-7----0-0-0-0-0-0---5-X---6-6-6--|

    B            A            G            A
E-|-7-7-7-7-7----5-5-5-5-5----3-3-3-3-3----5-5-5-5-5--|
B-|-7-7-7-7-7----5-5-5-5-5----3-3-3-3-3----5-5-5-5-5--|
G-|-8-8-8-8-8----6-6-6-6-6----4-4-4-4-4----6-6-6-6-6--|
D-|-9-9-9-9-9----7-7-7-7-7----5-5-5-5-5----7-7-7-7-7--|
A-|-9-9-9-9-9----7-7-7-7-7----5-5-5-5-5----7-7-7-7-7--|
E-|-7-7-7-7-7----5-5-5-5-5----3-3-3-3-3----5-5-5-5-5--|

    B            A            G            A
E-|-7-7-7-7-7----5-5-5-5-5----3-3-3-3-3----5-5-5-5-5--|
B-|-7-7-7-7-7----5-5-5-5-5----3-3-3-3-3----5-5-5-5-5--|
G-|-8-8-8-8-8----6-6-6-6-6----4-4-4-4-4----6-6-6-6-6--|
D-|-9-9-9-9-9----7-7-7-7-7----5-5-5-5-5----7-7-7-7-7--|
A-|-9-9-9-9-9----7-7-7-7-7----5-5-5-5-5----7-7-7-7-7--|
E-|-7-7-7-7-7----5-5-5-5-5----3-3-3-3-3----5-5-5-5-5--|

Thats all for now, hope it comes in useful to someone,

commnets etc welcome,

Ryan Johnstone (joh1430j@bkstud1.uel.ac.uk)













Comments