Lemonheads - Rudderless Chords & Tabs

 

Rudderless Chords & Tabs

Lemonheads Chords & Tabs

Version: 1 Type: Tab 0 ratings
1 star 2 stars 3 stars 4 stars 5 stars
comments

Rudderless Tab

   
#----------------------------------PLEASE NOTE---------------------------------#
#This file is the author's own work and represents their interpretation of the #
#song. You may only use this file for private study, scholarship, or research. #
#------------------------------------------------------------------------------##
#

# For the latest collection of Lemonheads chords, go to
# http://www.uark.edu/~cbray/lemon/
#
# If you have any corrections or additions to this file, please email them
# to cbray@comp.uark.edu
#

"Rudderless"

Typed by: Chris Bray (cbray@comp.uark.edu)

(For a more accurate version, please buy the songbook, "It's A Shame About
Ray").



      D5(add#11)               Dmaj9               Dsus2(add9)      F#m
|-----5----x----5---5-----x----9---|---9-------x---7---7--------x---2---|
|-----9----x----9---9-----x----7---|---7-------x---5---5--------x---2---|
|-----7----x----7---7-----x----9---|---9-------x---7---7--------x---2---|
|-----0----x----0---0-----x----0---|---0-------x---0---0--------x---4---|
|----------------------------------|------------------------------------|
|----------------------------------|------------------------------------|
[ Tab from: http://www.guitartabs.cc/tabs/l/lemonheads/rudderless_tab.html ]
                               Asus2/E                              D5(add#11)
|---2------x---2---2------x----0---|---0-------x---0---0---0----x---5---|
|---2------x---2---2------x----0---|---0-------x---0---0---0----x---9---|
|---2------x---2---2------x----2---|---2-------x---2---0---0----x---7---|
|---4------x---4---4------x----2---|---2-------x---2---2---2----x---0---|
|----------------------------------|------------------------------------|
|----------------------------------|------------------------------------|



=====================================================================================================================================

"Rockin Stroll" 

Chords by:  Chris Bray (cbray@comp.uark.edu)
(For a more accurate version of this, please buy the "It's a Shame About Ray"
songbook).


Intro riff:

------------------------------|-----------------------------
------------------------------|-----------------------------
------------------------------|-----------------------------
------------------------------|-----------------------------
----9---7\5---7----5\4----5---|---4\2---5---4---4---2\0-----
------------------------------|-----------------------------


| D  G   F#m | Em  D | G F#m | Em  D |
Comments