Lemonheads - Confetti Chords & Tabs

 

Confetti Chords & Tabs

Lemonheads Chords & Tabs

Version: 1 Type: Bass Tab 0 ratings
1 star 2 stars 3 stars 4 stars 5 stars
comments

Confetti Bass Tab

Attached is my tab for Confetti by The Lemonheads.
Confetti by The Lemonheads
Tabbed by Thomas

[ Tab from: http://www.guitartabs.cc/tabs/l/lemonheads/confetti_btab.html ]
4x
G-------------------------------------------------
D-------------------------------------------------
A--5-5--------------------------------------------
E--------3-3--5-5--5-5-5--------------------------
>                                                                                
4x
G-------------------------------------------------
D-------------------------------------------------
A-------------------------------------------------
E--3--3----3--3--3----5--5----5--5--5-------------
>                                                                                
4x
G-------------------------------------------------
D-------------------------------------------------
A-------------------------------------------------
E--0-0--3-3--5-5--5-5-5-5-------------------------
>                                                                                
4x
G-------------------------------------------------------
D-------------------------------------------------------
A--5--5--0--0--2--2-------------------------------------
E----------------------3--3--0-0--0-0-0-0--5-5--5-5-5-5-
>                                                                                
4x                        4x
G-----------------------------------------------
D-----------------------------------------------
A-----------------------------------------------
E--3-3--3-3-3--5-5--5-5-5--0-0--3-3--5-5--5-5-5-
>                                                                                
2x
G-------------------------------------------------------
D-------------------------------------------------------
A--5--5--0--0--2--2-------------------------------------
E----------------------3--3--0-0--0-0-0-0--5-5--5-5-5-5-
>                                                                                
4x
G-----------------------------
D-----------------------------
A-----------------------------
E--3-3--3-3-3-3--5-5--5-5-5-5-
>                                                                                 
4x
G------------------------------------------
D------------------------------------------
A--5-5-----------------------------------5-
E--------3-3--5-5--5-5-5-------------------

Any questions or comments: Jeff151515@aol.com

Comments