Leinster Dave - Misty Eyed Perception Chords & Tabs

 

Misty Eyed Perception Chords & Tabs

Leinster Dave Chords & Tabs

Version: 1 Type: Tab 0 ratings
1 star 2 stars 3 stars 4 stars 5 stars
comments

Misty Eyed Perception Tab

   

SONG : Misty-Eyed Perception

ARTIST: Dave Leinster

DATE: January 14, 2003

© 2003 Dave Leinster


INTRO & RIFF 1:
e------------2p-------------0---------------0------------------------|
B--------3------3-------------2---------------2----------------------|
G----------2------2-----0-------0-------0-------0-------0------------| (x2)
D------0------------0-----2-------2-------2-------2-------0----------|
A---------------------2-------------2-3-------------3----------------|
E-----------------------------------------------------3-----2--------|

VERSE 1:
e------2------|------0------|------0------|------3------|------------|
B------3------|------3------|------3------|------3------|------------|
G------2------|------0------|------0------|------0------|------------|
D------0------|------2------|------2------|------0------|------------|
A-------------|------2------|------3------|------2------|------------|
E-------------|------x------|------x------|------3------|------2-----|

e------2------|------0------|------0------|------3------|------------|
B------3------|------3------|------3------|------3------|------------|
G------2------|------0------|------0------|------0------|------------|
D------0------|------2------|------2------|------0------|------------|
A-------------|------2------|------3------|------2------|------------|
E-------------|------x------|------x------|------3------|------2-----|

VERSE 2:
e------2------|------0------|------0------|------3------|------------|
B------3------|------3------|------3------|------3------|------------|
G------2------|------0------|------0------|------0------|------------|
D------0------|------2------|------2------|------0------|------------|
A-------------|------2------|------3------|------2------|------------|
E-------------|------x------|------x------|------3------|------2-----|

e------2------|------0------|------0------|------3------|------------|
B------3------|------3------|------3------|------3------|------------|
G------2------|------0------|------0------|------0------|------------|
D------0------|------2------|------2------|------0------|------------|
A-------------|------2------|------3------|------2------|------------|
E-------------|------x------|------x------|------3------|------2-----|

CHORUS:

e------0------|------0------|------0------|------3------|------------|
B------1------|------3------|------1------|------3------|------------|
G------0------|------0------|------0------|------0------|------------|  (x2)
D------2------|------4------|------2------|------0------|------------|
A------3------|------5------|------3------|------2------|------------|
E------x------|------x------|------x------|------3------|------2-----|

       You're mind takes you on ...

e------0------|------0------|------3------|
B------1------|------3------|------3------|
G------0------|------0------|------0------|  
D------2------|------4------|------0------|
A------3------|------5------|------2------|
E------x------|------x------|------3------|

       And Around ...

e------0------|------0------|------3------|------------|
B------1------|------3------|------3------|------------|
G------0------|------0------|------0------|------------|
D------2------|------4------|------0------|------------|
A------3------|------5------|------2------|------------|
E------x------|------x------|------3------|------2-----|

       You'll find ...

(RIFF 1)

VERSE 3:

e------2------|------0------|------0------|------3------|------------|
B------3------|------3------|------3------|------3------|------------|
G------2------|------0------|------0------|------0------|------------|
D------0------|------2------|------2------|------0------|------------|
A-------------|------2------|------3------|------2------|------------|
E-------------|------x------|------x------|------3------|------2-----|
[ Tab from: http://www.guitartabs.cc/tabs/l/leinster_dave/misty_eyed_perception_tab.html ]
e------2------|------0------|------0------|------3------|------------|
B------3------|------3------|------3------|------3------|------------|
G------2------|------0------|------0------|------0------|------------|
D------0------|------2------|------2------|------0------|------------|
A-------------|------2------|------3------|------2------|------------|
E-------------|------x------|------x------|------3------|------2-----|

VERSE 4:

e------2------|------0------|------0------|------3------|------------|
B------3------|------3------|------3------|------3------|------------|
G------2------|------0------|------0------|------0------|------------|
D------0------|------2------|------2------|------0------|------------|
A-------------|------2------|------3------|------2------|------------|
E-------------|------x------|------x------|------3------|------2-----|

e------2------|------0------|------0------|------3------|------------|
B------3------|------3------|------3------|------3------|------------|
G------2------|------0------|------0------|------0------|------------|
D------0------|------2------|------2------|------0------|------------|
A-------------|------2------|------3------|------2------|------------|
E-------------|------x------|------x------|------3------|------2-----|

(REPEAT CHORUS & RIFF 1 (x2))


LYRICS WITH CHORDS:


MISTY-EYED PERCEPTION - Music & Lyrics by Dave Leinster


Verse 1:
D              Em7    
She stands out in a crowd
         Csus2/E          G     G/F#      
and your heart is full of choice
D              Em7 
And the little things remind you
      Csus2/E           G     G/F#
she's the one where you belong

Verse 2:
D                     Em7                
Sometimes it's not as clear as stone
    Csus2/E              G    G/F#
and times like rain, you feel alone
D                    Em7
The choice becomes a misty-eyed perception
           Csus2/E             G   G/F#
and you're back from where you came

Chorus:
C         D(2)           C           G   G/F#
Your mind takes you on a ferriswheel ride
C         D(2)             C       G     G/F#
When your looking for that girl to arrive
C              D(2)                  C                     G
if you let her just find you, you'll see shes been sitting next to you
    C      D(2)      G   C                 D(2)                   G   G/F# 
and around life will go, You'll find peace having nothing left to know

----------------- RIFF 1:----------------------------------------

Verse 3:
D                          Em7
Even sometimes when you're feeling down
        Csus2/E                    G    G/F#   
and your kness get weak - then you fall to the ground
D                           Em7
Your thinking, "What if she never finds me?"
    Csus2/E         G            G/F#
You lay there, it's raining down self misery

Verse 4: 
D                      Em7
You see a drop beading from your hair
Csus2/E                 G      G/F# 
and through the drop, a figure standing there
D                          Em7 
With outstreched hands she helps you up
            Csus2/E     G   G/F#
this is the ride called love

   
Chorus followed by RIFF 1 (x2)


-----------------------------------------------------------------



CHORDS:   |  D  |  Em7  | Csus2/E |  G  | G/F# |  C  |  D(2) |  
        --|-----|-------|---------|-----|------|-----|-------|
        e |  2  |   0   |    0    |  3  |  -   |  0  |   0   |     
        B |  3  |   3   |    3    |  3  |  -   |  1  |   3   |  
        G |  2  |   0   |    0    |  0  |  -   |  0  |   0   |   
        D |  0  |   2   |    2    |  0  |  -   |  2  |   4   |  
        A |  -  |   2   |    3    |  2  |  -   |  3  |   5   |   
        E |  -  |   x   |    x    |  3  |  2   |  x  |   x   |         
          |     |       |         |     |      |     |       |
Comments