Legends Never Die - Nothing Chords & Tabs

 

Nothing Chords & Tabs

Legends Never Die Chords & Tabs

Version: 1 Type: Tab 0 ratings
1 star 2 stars 3 stars 4 stars 5 stars
comments

Nothing Tab

   
----------------------------------------------------------------------------
			     Nothing - Legends Never Die
----------------------------------------------------------------------------
Tabbed by:
Email:

Tuning:EADGBe

Main Riff:
e|------------------------------------------------------------------------|
B|------------------------------------------------------------------------|
G|------------------------------------------------------------------------|
D|--------4---------------------------------------------------------------|
A|--4-6-7---4------------6/7\6--------------------------------------------|
E|------------7-5-4--7h9-------9-7-6--------------------------------------|

Verse:
e|------------------------------------------------------------------|
B|---5-5------9------------------11---------------------------------|
G|---6-6------9----9/10\9--------11---------------------------------|
D|---6-6------9----9/10\9-9------11---------------------------------|
A|-4-4-4//7-7-7--7-7/8-\7-9------9----------------------------------|
E|------------------------7---7-------------------------------------|
[ Tab from: http://www.guitartabs.cc/tabs/l/legends_never_die/nothing_tab.html ]
Chorus:
e|----------------------------------------------------------------------|
B|----------------------------------------------------------------------|
G|----------------------------------------------------------------------|
D|----------------------------------------------------------------------|
A|------7h9-6------9/11-9-7-6-------------------------------------------|
E|-9--9--------7-7------------------------------------------------------|

Bridge:
e|-------------------------------------------------------------------------|
B|-------------------------------------------------------------------------|
G|-------------------------------------6--9--9/10\9-------6--9--9/10\9-----|
D|--------------------------------------------------9--6---------------9-6-|
A|-6\4--7--7h8p7------4--7--7h8p7------4--7--7/8-\7-------4--7--7/8-\7-----|
E|---------------7-4--------------7-4---------------7--4---------------7-4-|

part after the chorus that comes after the bridge
e|-------------------------------------------------------------------------|
B|-------------------------------------------------------------------------|
G|-----6-6-----------------------------------------------------------------|
D|-----6-6-----------------------------------------------------------------|
A|-4---4-4--------------6/7\6----------------------------------------------|
E|------------------7h9-------9-7-6----------------------------------------|

order:
Main Riff x4
Verse x4
Main Riff x4
Chorus x8
Bridge x1
Chorus x4
Part that comes after the chorus after the bridge x1
Main Riff x3
Verse x4
Chorus x1
| /  slide up
| \  slide down
| h  hammer-on
| p  pull-off
| ~  vibrato
| +  harmonic
| x  Mute note
===============================================================================
Comments