Legends Never Die - Low Standards Chords & Tabs

 

Low Standards Chords & Tabs

Legends Never Die Chords & Tabs

Version: 1 Type: Tab 0 ratings
1 star 2 stars 3 stars 4 stars 5 stars
comments

Low Standards Tab

   
----------------------------------------------------------------------------
			     Low Standards - Legends Never Die
----------------------------------------------------------------------------
Tabbed by: con queso
Email: legendsneverdiedep@hotmail.com

Tuning:EADGBe

intro (feedback)

Riff:
e|-------------------------------------------------------------------------|
B|-------------------------------------------------------------------------|
G|-------------------------------------------------------------------------|
D|-8-8-8------------------------------8-8-8--------------------------------|
A|-6-6-6-8-9-9-9-8-11-11-11-8-6-6-6-6-6-6-6-8-9-9-9-8-11-11-11-8-6---------|
E|-------6-7-7-7-6-9--9--9--6-4-4-4-4-------6-7-7-7-6-9--9--9--6-4---------|
   x x x x   x x x    x  x  x x x x   x x x x   x x x    x  x  x

Verse:
e|-----------------------------------------------------------------|
B|-----------------------------------------------------------------|
G|-----------------------------------------------------------------|
D|-----------------------------------------------------------------|
A|-6~~~~-------------------------------4h6p4h6~~~~--////-----------|
E|-----------------------------------------------------------------|

Chorus:
e|--------------------------------------------------------------------|
B|--------------------------------------------------------------------|
G|-----8-8----9-9-----------11-11-------------------------------------|
D|-----8-8----9-9---9-9-----11-11-------------------------------------|
A|-----6-6----7-7---9-9-----9--9--------------------------------------|
E|------------------7-7-----------------------------------------------|

Bridge:
e|----------------------------------------------------------------------|
B|----------------------------------------------------------------------|
G|----------------------------------------------------------------------|
D|-------------------------6------------------8-6---------------4h6-------|
A|-6~6~6~6~----------4-4-4----------------6-6-----9---------4-4-----------|
E|----------7~7~7~~~------------4-4-4~~-------------7~7~7~~----------4~----|
                           x

e|-------------------------------------------------------------------------|
B|-----11-9---------------7h9--------------9-11-9-----------------7h9------|
G|-8-8------11--------6-6--------------8-8--------11----------6-6----------|
D|-------------9---9----------7-7-7\6----------------9-9-9------------6----|
A|-------------------------------------------------------------------------|
E|-------------------------------------------------------------------------|

[ Tab from: http://www.guitartabs.cc/tabs/l/legends_never_die/low_standards_tab.html ]
e|----------------------------------------------------------------------|
B|--------11-9-----------7h9--------------------------------------------|
G|--7+/8-8-----11-----6-----------8~8~8~8~6~6~6~~~----------------------|
D|----------------9----------6------------------------------------------|
A|----------------------------------------------------------------------|
E|----------------------------------------------------------------------|

Outro:
e|-------------------------------------------------------------------------|
B|-------------------------------------------------------------------------|
G|-8-8-8------------------------------8-8-8--------------------------------|
D|-8-8-8-8-9-9-9-8-11-11-11-8-6-6-6-6-8-8-8-8-9-9-9-8-11-11-11-8-6---------|
A|-6-6-6-8-9-9-9-8-11-11-11-8-6-6-6-6-6-6-6-8-9-9-9-8-11-11-11-8-6---------|
E|-------6-7-7-7-6-9--9--9--6-4-4-4-4-------6-7-7-7-6-9--9--9--6-4-/////---|

e|-------------------------------------------------------------------------|
B|-------------------------------------------------------------------------|
G|-8-8-8------------------------------8-8-8--------------------------------|
D|-8-8-8-8-9-9-9-8-11-11-11-8-6-6-6-6-8-8-8-8-9-9-9-8-11-11-11-8-6-xxxxxx--
A|-6-6-6-8-9-9-9-8-11-11-11-8-6-6-6-6-6-6-6-8-9-9-9-8-11-11-11-8-6-xxxxxx--
E|-------6-7-7-7-6-9--9--9--6-4-4-4-4-------6-7-7-7-6-9--9--9--6-4-xxxxxx--

e|-------------------------------------------------------------------------|
B|-------------------------------------------------------------------------|
G|-8-8-8------------------------------8-8-8--------------------------------|
D|-8-8-8-8-9-9-9-8-11-11-11-8-6-6-6-6-8-8-8-8-9-9-9-8-11-11-11-8-6---------|
A|-6-6-6-8-9-9-9-8-11-11-11-8-6-6-6-6-6-6-6-8-9-9-9-8-11-11-11-8-6---------|
E|-------6-7-7-7-6-9--9--9--6-4-4-4-4-------6-7-7-7-6-9--9--9--6-4---------|

e|-------------------------------------------------------------------------|
B|-------------------------------------------------------------------------|
G|-8-8-8------------------------------8-8-8--------------------------------|
D|-8-8-8-8-9-9-9-8-11-11-11-8-6-6-6-6-8-8-8-8-9-9-9-8-11-11-11-8-6---------|
A|-6-6-6-8-9-9-9-8-11-11-11-8-6-6-6-6-6-6-6-8-9-9-9-8-11-11-11-8-6---------|
E|-------6-7-7-7-6-9--9--9--6-4-4-4-4-------6-7-7-7-6-9--9--9--6-4---------|

e|-------------------------------------------------------------------------|
B|-------------------------------------------------------------------------|
G|-8----------------8------------------------------------------------------|
D|-8----------------8------------------------------------------------------|
A|-6----------------6------------------------------------------------------|
E|-------------------------------------------------------------------------|

Order:
Intro
Riff x2
Verse
Chorus x4
Riff x2
Verse
Chorus x4
Bridge
Outro

| /  slide up
| \  slide down
| h  hammer-on
| p  pull-off
| ~  vibrato
| +  harmonic
| x  Mute note
===============================================================================
Comments