Legends Never Die - Elixer Chords & Tabs

 

Elixer Chords & Tabs

Legends Never Die Chords & Tabs

Version: 1 Type: Tab 0 ratings
1 star 2 stars 3 stars 4 stars 5 stars
comments

Elixer Tab

this band just came out and i heard them on the radio and i loved the song so i figured 
out, i encourage all of you to listen to them


Main Riff:
every two times the second half of the riff is palm muted
------------------------------------------------------------------------|
------------------------------------------------------------------------|
---------------------------------------------5---------------7----------|
-----------------------------------------5-----5--5------7-----7-5h7----|
-----9-10-----9-5-----9-10-----9-5---3-3---3-----3---5-5---5------------|
-0-0------0-0-----0-0------0-0------------------------------------------|
[ Tab from: http://www.guitartabs.cc/tabs/l/legends_never_die/elixer_tab.html ]
change:
-------------------------------------------------------------------|
-------------------------------------------------------------------|
-------------------------------------------------------------------|
---------5h7-5h7-----5h7-5h7-5-------------------------------------|
---------5h7-5h7-----5h7-5h7-5----------5---------------5----------|
-0-0-0-0---------0-0------------0-5-7-8---8-7-5-0-5-7-8---8-7-5----|

change 2:
-------------------------------------------------------------------|
-------------------------------------------------------------------|
---------------------------------------------5-5-5-5-7-7-7-6/7-----|
---------------------------------------------5-5-5-5-7-7-7-6/7-----|
-----9b(10)-----9b(10)----9b(10)-----9b(10)--3-3-3-3-5-5-5-4/5-----|
-0-0-------0-0--------0-0--------0-0-------------------------------|

during bass solo:
------------------------------------------------------------------|
------------------------------------------------------------------|
-9-9-9-9-9-9-9-9-9-9-9-9-9-9-9-9-5-5-5-5-5-5-5-5-5-7-7-7-6/7------|
-9-9-9-9-9-9-9-9-9-9-9-9-9-9-9-9-5-5-5-5-5-5-5-5-5-7-7-7-6/7------|
-7-7-7-7-7-7-7-7-7-7-7-7-7-7-7-7-3-3-3-3-3-3-3-3-3-5-5-5-4/5------|
-0-0-0-0-0-0-0-0-0-0-0-0-0-0-0-0----------------------------------|
 x x x x x x x x x x x x x x x x x x x x x x x x x x x x

SOLO IS TOO HARD, I'LL COME BACK TO IT
Comments