Legacy Of Hate - Freefall Chords & Tabs

 

Freefall Chords & Tabs

Legacy Of Hate Chords & Tabs

Version: 1 Type: Tab 0 ratings
1 star 2 stars 3 stars 4 stars 5 stars
comments

Freefall Tab

Freefall rythmguitar tabs:

(Transcription by Max Haider)


Riff 1 
E--------------------------|         
B--------------------------|
G----------4---3-----------|
D--2---3---4---3---4---5---|
A--2---3---2---1---4---5---|
E--0---1-----------2---3---|

Riff 2 (chorus)

E------------------------------------------|
B------------------------------------------|
G------------------------------------------|
D--2-----------------------------------4---|
A--2---2---2---2-----2---2-------------4---|
E--0---0---0---0-----0---0-----0---0---2---|

 

E--------------------------------------|
B--------------------------------------|
G--------------------------------------|
D----------------------------------3---|
A--2---2---2-----2---2-------------3---|
E--0---0---0-----0---0-----0---0---1---|

 

E--------------------------------------|
B--------------------------------------|
G--------------------------------------|
D----------------------------------4---|
A--2---2---2-----2---2-------------4---|
E--0---0---0-----0---0-----0---0---2---|

 
[ Tab from: http://www.guitartabs.cc/tabs/l/legacy_of_hate/freefall_tab.html ]
E----------------------------|
B----------------------------|
G----------------------------|
D------------------------6---|
A--2---2---2-------------6---|
E--0---0---0-----0---0---4---|

Riff 3 (melodic bridge)

E-----------------------------------------|
B-----------------------------------------|
G-----------------------------------------|
D-----4--5-----4--5-----9--10-----9--10---|
A--2--------3--------7---------8----------|
E-----------------------------------------|

Riff 4 
E-------------------------------------|-------------------------------|
B-------------------------------------|-------------------------------|
G-------------------------------------|-------------------------------|
D-------------------------------------|-------------------------------|
A-------------------------------------|----------------------------7--|
E--0--2--1--0--2--3--0--2--1--0--3--2-|-0--2--1--0--3--2--0--7--6-----|

Riff 5 (slow one, solo)

 

E--------------------------|
B--------------------------|
G-------5------------------|
D--2----5----4----7----6---|
A--2----3----4----7----6---|
E--0----3----2----5----4---|
Comments