Leftover Crack - Super Tuesday Chords & Tabs

 

Super Tuesday Chords & Tabs

Leftover Crack Chords & Tabs

Version: 1 Type: Tab 0 ratings
1 star 2 stars 3 stars 4 stars 5 stars
comments

Super Tuesday Tab

Ight, this is one of my favorite songs by LOC on the Fuck World Trade album.  i've only
got part of the song down right now, but i'm still working at it, so once i do, i'll put
it up

Intro:


First Guitar:

into: riff 1 once
e ---5~~~-0--5~~~-0--9~~~-0--9--5--14~~~-|
b ---------------------------------------|
g ---------------------------------------|
d ---------------------------------------|
a ---------------------------------------|
e ---------------------------------------|

into: riff 2 three
e ---12--12--14--12--12--16--12--12--14--12--12--16--12--12--14-------|   X3
b --------------------------------------------------------------------|
g --------------------------------------------------------------------|
d --------------------------------------------------------------------|
a --------------------------------------------------------------------|
e --------------------------------------------------------------------|

into: riff 3 once. then repeat from riff 2
e ---12--12--14--12--12--13--12--12--11--11--11--12--12--12--12--12-|
b ------------------------------------------------------------------|
g ------------------------------------------------------------------|
d ------------------------------------------------------------------|
a ------------------------------------------------------------------|
e ------------------------------------------------------------------|

e ----------------------------------|
b ----------------------------------|
g 9---------------------------------|
d 9---------------------------------|
a 7---------------------------------|
e ----------------------------------|
(not sure how many times it is played, listen to song and figure out)


bridge
do whole bridge twice
                   x3                     after 3rd time do this
e ------------------------------------ ---------------------------|
b ------------------------------------ ---------------------------|
g 9------11---13---------------------- 9----8---------------------|
d 9------11---13---------------------- 9----8---------------------|
a 7-------9---11---------------------- 7----6---------------------|
e ------------------------------------ ---------------------------|

[ Tab from: http://www.guitartabs.cc/tabs/l/leftover_crack/super_tuesday_tab.html ]
verse  this part i'm not 100% sure about.  X2
e  -------------------------------------------|
b  -------------------------------------------|
g  9-----9----9----9------4--- 4----4----4----|
d  9X4---9----9X4--9------4X4--4----4X4--4----|
a  7-----7----7----7------2----2----2----2----|
e  -------------------------------------------|
   o          o           o         o


e -----------------------------------------------|
b -----------------------------------------------|
g -9----9--- 9----9----11----11----9---9---------|
d -9X4--9----9X4--9----11X4--11----9X4 9---------|
a -7--- 7----7----7-----9-----9----7---7---------|
e -----------------------------------------------|
   o         o          o         o


verse part 2:
e ---------------------------------|
b ---------------------------------|
g 8-8-8-8-8-8-8-8-9-9-9-9-9-9-9-9--|
d 8-8-8-8-8-8-8-8-9-9-9-9-9-9-9-9--|
a 6-6-6-6-6-6-6-6-7-7-7-7-7-7-7-7--|
e ---------------------------------|
  o o o o o o o o o o o o o o o o


e --------------------------------------------|
b --------------------------------------------|
g 8-8-8-8-8-8-8-8-11-11-11-11-11-11-11-11-----|
d 8-8-8-8-8-8-8-8-11-11-11-11-11-11-11-11-----|
a 6-6-6-6-6-6-6-6--9--9--9--9--9--9--9--9-----|
e --------------------------------------------|
  o o o o o o o o

Chorus: X2

e -------------------------------------------------------|
b -------------------------------------------------------|
g -------------------------------------------------------|
d 7--9--11----7--9--11----7--9--11----7--9--6------------|
a 7--9--11----7--9--11----7--9--11----7--9--6------------|
e 5--7--9-----5--7---9----5--7---9----5--7--4------------|


Bridge 2: X4
e14-14-14-14-14-14-14-14-19-19-19-19-19-19-19-19-----|    X3
b----------------------------------------------------|
g----------------------------------------------------|
d----------------------------------------------------|
a----------------------------------------------------|
e----------------------------------------------------|

there is another line to it, but it is played too high to play on a guitar that only 
to the 22nd fret. pretty fuckin high...

ending:
                x3
e ------------------------------------------ ---------------------------|
b ------------------------------------------ ---------------------------|
g 9------11---13---------------------------- 9----8---------------------|
d 9------11---13---------------------------- 9----8---------------------|
a 7-------9---11---------------------------- 7----6---------------------|
el------------------------------------------ ---------------------------|

order:
intro
bridge
verse
chorus
bridge2
verse
bridge
chorus
bridge
chorus
ending


if there are any other problems email it to me at frenche8138@yahoo.com. don't mind the 
email. later.
Comments