Leftover Crack - Rock The 40 Oz Chords & Tabs

 

Rock The 40 Oz Chords & Tabs

Leftover Crack Chords & Tabs

Version: 2 Type: Tab

Rock The 40 Oz Tab

Intro guitar 1:
---------------------------------|
---------------------------------|
-9-9-9-9-5-5-5-5-----------------|
-9-9-9-9-5-5-5-5-5-5-5-5-5-5-5-5-|
-7-7-7-7-3-3-3-3-5-5-5-5-5-5-5-5-|
-----------------3-3-3-3-3-3-3-3-|

Intro guitar 2:
------------------------------------|
------------------------------------|
-5/9------12-12-12-12---14-14-14-14-|
-x/x------x--x--x--x----x--x--x--x--|
-3/7------10-10-10-10---12-12-12-12-|
------------------------------------|

---------------------------------|
---------------------------------|
-9-9-9-9-5-5-5-5-----12--14--16--|
-9-9-9-9-5-5-5-5------x---x---x--|
-7-7-7-7-3-3-3-3-----10--12--14--|
---------------------------------|

Verse guitar 1:(semi distorted ska chords)
-7x7x-------------------------------|
-7x7x-5x5x-4x4x4x4------------------|(last chord in verse)
-9x9x-5x5x-4x4x4x4--------7-7-7777--|
-9x9x-5x5x-4x4x4x4--------7-7-7777--|
-7x7x-3x3x-2x2x2x2--------5-5-5555--|
------------------------------------|

Verse guitar 2:
----------7-7-7-7-10-10-10-10-8-8-8-8--|
-8-8-8-8-------------------------------|
---------------------------------------|
---------------------------------------|
---------------------------------------|
---------------------------------------|
[ Tab from: http://www.guitartabs.cc/tabs/l/leftover_crack/rock_the_40_oz_tab_ver_2.html ]
Chorus(distortion!):
---------------------------------|
---------------------------------|
---------7-7-7-7-4-4-4-5-4-4-4-4-|
-5-5-5-5-7-7-7-7-4-4-4-5-4-4-4-4-|
-5-5-5-5-5-5-5-5-2-2-2-3-2-2-2-2-|
-3-3-3-3-------------------------|

---------------------------------|
---------------------------------|
---------5-5-5-5-4-4-4-4-4-4-4-4-|
-5-5-5-5-5-5-5-5-4-4-4-4-4-4-4-4-|
-5-5-5-5-3-3-3-3-2-2-2-2-2-2-2-2-|
-3-3-3-3-------------------------|

------------------------------------|
------------------------------------|
12-12-12-12--7-7-7-7--4-4-4-4-4-4-4-|
x--x--x--x---x-x-x-x--x-x-x-x-x-x-x-|
10-10-10-10--5-5-5-5--2-2-2-2-2-2-2-|
------------------------------------|

Post chorus:
-------------------------------------------------|
-------------------------------------------------|
-5-5m-5m-5-5-4-4m-4m-4-4-5-5m-5m-5-5-4-4m-4m-5-7-|
-5-5m-5m-5-5-4-4m-4m-4-4-5-5m-5m-5-5-4-4m-4m-5-7-|
-3-3m-3m-3-3-2-2m-2m-2-2-3-3m-3m-3-3-2-2m-2m-3-5-|
-------------------------------------------------|

Ending:
-----------------------------------|
-----------------------------------|
-4-4-4-4-5-5-7-7----12----------12-|
-4-4-4-4-5-5-7-7----12(let ring)12-|
-2-2-2-2-3-3-5-5----10----------10-|
-----------------------------------|

Intro
Verse
Chorus
Post Chorus
Verse
Chorus
Post Chorus
Verse
Chorus
Post Chorus
Chorus
Post Chorus
Ending riff

 Alrght thats my tab, hope you enjoyd the play.
Please rate!