Leftover Crack - Rock The 40 Oz Chords & Tabs

 

Rock The 40 Oz Chords & Tabs

Leftover Crack Chords & Tabs

Version: 1 Type: Tab 0 ratings
1 star 2 stars 3 stars 4 stars 5 stars
comments

Rock The 40 Oz Tab

   
Tuning: E A D G B E

e|-----------------------------------------------------------------------------|
B|-----------------------------------------------------------------------------|
G|--9-9-9-9--5-5-5-5--------------9-9-9-9--5-5-5-5-----------------------------|
D|--9-9-9-9--5-5-5-5--5-5-5-5--9-9-9-9--5-5-5-5--5-5-5-5-----------------------|
A|--7-7-7-7--3-3-3-3--5-5-5-5--7-7-7-7--3-3-3-3--5-5-5-5-----------------------|
E|--------------------------3-3-3-3--------------------------3-3-3-3-----------|

drums and bass come in

e|-----------------------------------------------------------------------------|
B|-----------------------------------------------------------------------------|
G|--9-9-9-x--5-5-5-x-----------------------------------------------------------|
D|--9-9-9-x--5-5-5-x--5-5-5-x-5-5-5-x------------------------------------------|
A|--7-7-7-x--3-3-3-x--5-5-5-x-5-5-5-x------------------------------------------|
E|-------------------------3-3-3-x-3-3-3-x-------------------------------------|

e|-----------------------------------------------------------------------------|
B|-----------------------------------------------------------------------------|
G|--9-9-9-x--5-5-5-x-11-11-11-x--12-x-11---------------------------------------|
D|--9-9-9-x--5-5-5-x--x---x---x--x---x--x---x----------------------------------|
A|--7-7-7-x--3-3-3-x--9--9--9---x--11-x-12-------------------------------------|
E|-----------------------------------------------------------------------------|
[ Tab from: http://www.guitartabs.cc/tabs/l/leftover_crack/rock_the_40_oz_tab.html ]
e|------------7-7-7-7-10-10-10-10-8-8-8-8--------------------------------------|
B|-8-8-8-8---------------------------------------------------------------------|
G|-----------------------------------------------------------------------------|
D|-----------------------------------------------------------------------------|
A|-----------------------------------------------------------------------------|
E|-----------------------------------------------------------------------------|

e|------------7-7-7-7-10-10-10-10-8-8-8-8--------------------------------------|
B|-8-8-8-8---------------------------------------------------------------------|
G|-----------------------------------------------------------------------------|
D|-----------------------------------------------------------------------------|
A|-----------------------------------------------------------------------------|
E|-----------------------------------------------------------------------------|

e|------------7-7-7-7-10-10-10-10-8-8-8-8--------------------------------------|
B|-8-8-8-8---------------------------------------------------------------------|
G|-----------------------------------------------------------------------------|
D|-----------------------------------------------------------------------------|
A|-----------------------------------------------------------------------------|
E|-----------------------------------------------------------------------------|

e|------------7-7-7-7----------------------------------------------------------|
B|-8-8-8-8---------------------------------------------------------------------|
G|----------------------9--9--9--9---------------------------------------------|
D|----------------------9--9--9--9---------------------------------------------|
A|-----------------------7--7--7--7--------------------------------------------|
E|-----------------------------------------------------------------------------|
i dont know

| /  slide up
| \  slide down
| h  hammer-on
| p  pull-off
| ~  vibrato
| +  harmonic
| x  Mute note
===============================================================================
Comments