Leftover Crack - Nazi Whitetrash Chords & Tabs

 

Nazi Whitetrash Chords & Tabs

Leftover Crack Chords & Tabs

Version: 2 Type: Bass Tab 0 ratings
1 star 2 stars 3 stars 4 stars 5 stars
comments

Nazi Whitetrash Bass Tab

Intro

|----------|----------|----------|-------------|
|----------|----------|----------|-------------|
|-77777777-|----------|----------|--------11-9-| X2
|----------|-77777777-|-99999999-|-777777------|
  1&2&3&4&  etc......

Verse

|------|------|-------|------------|
|---9--|------|-------|------------|
|-77-7-|---9--|---11--|---10/9(/7)-| X2
|------|-77-7-|-99--9-|-77---------|

|----------|----------|----------|-------|
|-----9----|----------|----------|-----7-|
|-7777-777-|-----9----|-----4----|---7---| X2
|----------|-7777-777-|-9999-999-|-5-----|

Chorus

|------|------|------|------|
|------|------|------|------| X4
|-7777-|------|-4444-|------| 
|------|-4444-|------|-5555-|

Verse
[ Tab from: http://www.guitartabs.cc/tabs/l/leftover_crack/nazi_whitetrash_btab_ver_2.html ]
|------|------|-------|------------|
|---9--|------|-------|------------|
|-77-7-|---9--|---11--|---10/9(/7)-| X2
|------|-77-7-|-99--9-|-77---------|

|----------|----------|----------|-------|
|-----9----|----------|----------|-----7-|
|-7777-777-|-----9----|-----4----|---7---| X2
|----------|-7777-777-|-9999-999-|-5-----|

Chorus

|------|------|------|------|
|------|------|------|------| 
|-7777-|------|-4444-|------| X4
|------|-4444-|------|-5555-|

Interlude/break (not completly sure)

|---|---|---|---|                        |----------|
|---|---|---|---|                        |----------|
|-7-|---|-4-|---| X2 on second time play |----------|
|---|-4-|---|-5-|                        |-55555555-|

Chorus

|------|------|------|------|
|------|------|------|------| 
|-7777-|------|-4444-|------| X8
|------|-4444-|------|-5555-|
Comments