Leftover Crack - Homeo Apathy Chords & Tabs

 

Homeo Apathy Chords & Tabs

Leftover Crack Chords & Tabs

Version: 1 Type: Tab 0 ratings
1 star 2 stars 3 stars 4 stars 5 stars
comments

Homeo Apathy Tab

Artist:Leftover Crack
song:Homeo Apathy

Intro
E--------------
B--------------
G--------------		repeat a lot
D-----7-10-8888
A-----7-10-8888
E-----5-8--6666

then
[ Tab from: http://www.guitartabs.cc/tabs/l/leftover_crack/homeo_apathy_tab.html ]
verse
E-------------------------
B-------------------------
G-------------------------
D-----10-10-10-999-888-777     repeat this a few time 
A-----10-10-10-999-888-777
E-----8--8--8--777-666-555

E-------------------------------------
B-------------------------------------
G----10-10-9-9-8-8-7-77777------------
D----10-10-9-9-8-8-7-77777---7-10-8888
A----8--8--7-7-6-6-5-55555---7-10-8888
E----------------------------5-8--6666

tabbed by : Mr.Santa rimri@freemail.hu
Comments