Leftover Crack - Heroin Or Suicide Chords & Tabs

 

Heroin Or Suicide Chords & Tabs

Leftover Crack Chords & Tabs

Version: 1 Type: Tab 0 ratings
1 star 2 stars 3 stars 4 stars 5 stars
comments

Heroin Or Suicide Tab

heroin or sucide guitar tabs should be really close to right
standard tunning   EADGBe
pm= palm mute
[ Tab from: http://www.guitartabs.cc/tabs/l/leftover_crack/heroin_or_suicide_tab.html ]
---------------------------------------------------------------------------|
---------------------------------------------------------------------------|
---------------------------------------------------------------------------|
---4--------------------------------------------------4--------------------|
---4--4--6666-----------------------------------------4--4--6666-----------|
---2--4--6666----pm3-3-3-3-----------------6-6-5-5-3--2--4--6666-----------|
------2--4444--------------3-3-3-3-4-4-4-4---------------2--4444-----------|
              x4                                   x2

guitar solo full gain for amp mid on half way low base play fast and listen for the rythem

----------------------------------|
----------------------------------|
----5555-----------88-77-3--------|
--pm5555-5555-6666-88-77-5--------|
----3333-5555-6666-66-55-3--------|
---------3333-4444----------------|
                            x2 then same thing but not palm mutted then it starts over 
the beggining but do not palm mute the beggining the 2nd time around
Comments