Leftover Crack - Gang Control Chords & Tabs

 

Gang Control Chords & Tabs

Leftover Crack Chords & Tabs

Version: 3 Type: Tab 0 ratings
1 star 2 stars 3 stars 4 stars 5 stars
comments

Gang Control Tab

   This tab is right I thing, but there is one part I dont know.

intro
e---------------------------------------------------|
b---------------------------------------------------|
g---------------------------------------------------|
d---------7-6-4-------------------9-8-6-------------|
a---4-7-4-------7-6-4-------7-9-7-------9-8-6-------|
e---------------------4-5-4-------------------9-7---|

verse
e---6x6x6x6x6x4/5--9x9x9x9x9x6/7---------------------|
b---6x6x6x6x6x4/5--9x9x9x9x9x6/7---------------------|
g---6x6x6x6x6x5/6--9x9x9x9x9x7/8---------------------|
d---6x6x6x6x6x6/7--9x9x9x9x9x8/9---------------------|
a---4x4x4x4x4x6/7--7x7x7x7x7x8/9---------------------|
e----x-x-x-x-x4/5---x-x-x-x-x6/7---------------------|

verse part 2
e---6x6-6-6-4-4-5-5--9x9-9-9-7-7----------------------|
b---6x6-6-6-4-4-5-5--9x9-9-9-7-7-11-11----------------|
g---6x6-6-6-5-5-6-6--9x9-9-9-8-8-11-11----------------|
d---6x6-6-6-6-6-7-7--9x9-9-9-9-9-11-11----------------|
a---4x4-4-4-6-6-7-7--7x7-7-7-9-9-9--9-----------------|
e----x------4-4-5-5---x------7-7----------------------|

part 1 - the first guitar plays this 4 times, but
the second guitar only plays it 2 times then plays
part 2 once
e----------------------------------------------------|
b----------------------------------------------------|
g---9-9-9-9-8-8-8-8-6-6-6-6-2-2-2-2------------------|
d---9-9-9-9-8-8-8-8-6-6-6-6-2-2-2-2------------------|
a---7-7-7-7-6-6-6-6-4-4-4-4-0-0-0-0------------------|
e----------------------------------------------------|
[ Tab from: http://www.guitartabs.cc/tabs/l/leftover_crack/gang_control_tab_ver_3.html ]
part 2
e-----------------------------------------------------------------|
b-----------------------------------------------------------------|
g---8-8/9-8-8/9-8-8/9-8-8/9--9-9/11-9-9/11-9-9/11-9-9/11-8-9-8----|
d---6-6/7-6-6/7-6-6/7-6-6/7--7-7/9--7-7/9--7-7/9--7-7/9--6-7-6----|
a-----------------------------------------------------------------|
e-----------------------------------------------------------------|

chorus
e----xxx------xxx--------------------------------------|
b----xxx------xxx--------------------------------------|
g----xxx-6-6-4xxx--4-9/--------------------------------|
d---2xxx-6-6-4xxx--4-9/--------------------------------|
a---2xxx-4-4-2xxx--2-7/--------------------------------|
e---0xxx------xxx--------------------------------------|

chorus part 2
e-------------------------------------------------------|
b-------------------------------------------------------|
g-------9-9-8-8-----------9-----------------------------|
d---2-2-9-9-8-8-7-7-9-7-9-9-----------------------------|
a---2-2-7-7-6-6-7-7-9-7-9-7-----------------------------|
e---0-0---------5-5-7-5-7-------------------------------|

outro
e-------------------------------------------------------|
b---------------------9-9-9-8-8-8-2-4-4-----------------|
g---9-9-9-8-8-8-2-2-2-9-9-9-8-8-8-2-4-4-----------------|
d---9-9-9-8-8-8-2-2-2-7-7-7-6-6-6-2-2-2-----------------|
a---7-7-7-6-6-6-0-0-0-----------------------------------|
e-------------------------------------------------------|


order
intro x2
verse x4
verse part2 x2
part1 guitar1 x4
      guitar2 x2
      guitar2 plays part2 while guitar1 finishes part1
chorus x2
verse x2
verse part2 x2
part1 guitar1 x4
      guitar2 x2
      guitar2 plays part2 while guitar1 finishes part1
chorus x2
chorus part2 x2
verse x1
verse part2 x1
then the part I dont know
chorus x2
chorus part2 x2
outro
Comments