Leftover Crack - Gang Control Chords & Tabs

 

Gang Control Chords & Tabs

Leftover Crack Chords & Tabs

Version: 1 Type: Tab 0 ratings
1 star 2 stars 3 stars 4 stars 5 stars
comments

Gang Control Tab

Leftover Crack - Gang Control

Tabbed by Duncan, aka bucky_2300


This is a great song, but a lot of people are too lazy to tab the whole thing. I've
only 1 version of it on 911tabs.com, and it only had an incorrect tab  for the verse.
I tabbed this song out, and it sounds good along with the CD to me. UPDATE! Tabbed the
intro, booyah. UPDATE - Holy crap, just realized how incomplete this is. I'll work on
transcribing the whole song in the coming week or so, soon this will be done completely. 


Intro - 
e|---------------------------------------------------------------------------|
B|---------------------------------------------------------------------------|
G|---------------------------------------------------------------------------|
D|------------7--6--4---------------------------9--7--6----------------------|
A|---4--7--4-----------7--6--4---------7--9--7-----------9--7--6-------------|
E|------------------------------4-5-4-----------------------------9---7------|

Verse
[ Tab from: http://www.guitartabs.cc/tabs/l/leftover_crack/gang_control_tab.html ]
e------------------------------------------------|
B------------------------------------------------|
G--6-x-6-x-6-x-6-x-6------9-x-9-x-9-x-9-x-9------|
D--6-x-6-x-6-x-6-x-6-6/7--9-x-9-x-9-x-9-x-9-8/9--|
A--4-x-4-x-4-x-4-x-4-6/7--7-x-7-x-7-x-7-x-7-8/9--|
E--------------------4/5--------------------6/7--|

Repeat until "Policia, policia, why can't you see?", when you change the rhythm. Same 
different timing. Easy enough.

Pre-chorus ("ALL RIGHT! YEAAAAHHHH!")

e-------------------------|
B-------------------------|
G--9-9-9-8-8-8-6-6-6-2-2--|
D--9-9-9-8-8-8-6-6-6-2-2--|  do that twice...
A--7-7-7-6-6-6-4-4-4-0-0--|
E-------------------------|

e---------------------------|
B---------------------------|
G--14-14/16-16--16\13/14-13-|
D--14-14/16-16--16\13/14-13-|
A--12-12/14-14--14\11/12-11-|
E---------------------------|

Chorus ("FUCK THA POLICE!")

e-------------------------------------|
B-------------------------------------|
G------------------9\---------------9-|
D--2----xx-9-7---7-9\x--2--xx-9-7-7-9-|
A--2----xx-9-7---7-7\x--2--xx-9-7-7-7-|
E--0----xx-7-5---5---x--0--xx-7-5-5---|

Repeat as necessary, there's a little interlude (England, Zaire, and Japan) that uses 
chorus chords, but with different rhythm and order.
Comments