Leftover Crack - Gang Control Chords & Tabs

 

Gang Control Chords & Tabs

Leftover Crack Chords & Tabs

Version: 2 Type: Bass Tab

Gang Control Bass Tab

intro
g--------------------------------------------------------|
d---------7-6-4--------------------9-8-6-----------------|
a---4-7-4-------7-6-4--------7-9-7-------9-8-6-----------|
e---------------------4-5-4--------------------9-7-------|

verse part 1
g--------------------------------------------------------|
d-------7-6---6--------9-7-6-7-4-------------------------|
a-----7-----9---7----9-----------------------------------|
e---9--------------7-------------------------------------|

verse part 2
g--------------------------------------------------------|
d--------------------------------------------------------|
a---4-4-4-4---------7-7-7-7----9-9-----------------------|
e-----------4-4-5-5---------7-7--------------------------|

chorus
g--------------------------------------------------------|
d--------------------------------------------------------|
a---7-7-7-6-6-6-4-4-4-0-0-0------------------------------|
e--------------------------------------------------------|
[ Tab from: http://www.guitartabs.cc/tabs/l/leftover_crack/gang_control_btab_ver_2.html ]
chorus
g--------------------------------------------------------|
d-----------------4--------------------------------------|
a--------4-4-2--4----------------------------------------|
e---0-0--------------------------------------------------|

after chorus
g--------------------------------------------------------|
d--------------------------------------------------------|
a-------7-7-6-6-2-2-4-2-4-7------------------------------|
e---0-0--------------------------------------------------|

you play this somewhere after one of the verse
g--------------------------------------------------------|
d--------------------------------------------------------|
a---4-4---------9-9--------------------------------------|
e-------4-4-6-6------------------------------------------|


after that play this
g------------------------------------------------------------------|
d------------------------------------------------------------------|
a---7-7-7-7-7-7-7-7-9-9-9-9-9-9-9-9-12-12-12-12-12-12-12-12-12-12--|
e------------------------------------------------------------------|


outro
g--------------------------------------------------------|
d-------------------------7-7-7-6-6-6-2-2-2--------------|
a-------7-7-7-6-6-6-0-0-0--------------------------------|
e---0-0--------------------------------------------------|