Leftover Crack - Gang Control Chords & Tabs

 

Gang Control Chords & Tabs

Leftover Crack Chords & Tabs

Version: 1 Type: Bass Tab 0 ratings
1 star 2 stars 3 stars 4 stars 5 stars
comments

Gang Control Bass Tab

alright kids, here's a song by morning glory that was re-written  for the 2004 album
fuck world trade. alec rocks the hell out of a bassline i believe to be written by
stza (on the original i hear him doing bacground vox and ive read interviews saying
he used to play bass for morning g.)as always, this shits 100% correct.

INTRO: (PLAY FAST)

G:----------------------------|
D:---676-----------67976------|
A:--7---976-------7-----976---|
E:-9-------97-5-4----------97-|

VERSE: (STZA)

G:----------------------------|
D:------7-6-------6-9-7-6-7---|
A:----7-----9---7-----------9-|
E:--9---------7---------------|
[ Tab from: http://www.guitartabs.cc/tabs/l/leftover_crack/gang_control_btab.html ]
VERSE: (EZRA)               PRE CHOROUS:

G:-----------------------][----------------------|
D:-----------------------][----------------------|
A:--4-4-------7-7-----9-9][-77-766-644-400--0-22-|
E:------45-54-----7-7----][----------------------|

CHORUS: (FUCK THE POLICE!!...)

G:-----------------------|I theres different variations and
D:-------------------4---|I parts are played more that i put
A:-------2-4--2--2-2---2-|I on the actual tab, but with what
E:0--0-0-----------------|I i give ya here you should learn the
                          rest with no problem

tabbed by agent graves// satansnameisnick@aol.com
Comments