Leftover Crack - Crack City Rockers Chords & Tabs

 

Crack City Rockers Chords & Tabs

Leftover Crack Chords & Tabs

Version: 1 Type: Tab 0 ratings
1 star 2 stars 3 stars 4 stars 5 stars
comments

Crack City Rockers Tab

   
-------------------------------------------------------------------------------
		     CRACK CITY ROCKERS - Leftover Crack
-------------------------------------------------------------------------------


Tuning: standard E

 intro

e|----------------------|
B|----------------------|
G|--7-9---9-12---12-14--|
D|--7-9---9-12---12-14--|
A|--5-7---7-10---10-12--|
E|----------------------|

e|----------------------------------------------------------|
B|----------------------------------------------------------|
G|--7777----------------77-99--1111-1212--1414141414141414--|
D|--7777-7777-9999-4444-77-99--1111-1212--1414141414141414--|  X 2
A|--5555-7777-9999-4444-55-77--9-9--1010--1212121212121212--|
E|-------5555-7777-2222-------------------------------------|

 1(no panhandling...)
 mute downstrokes

e|--x5x5x5x5--x5x5x5x5--x3x3x3x3--x7x7-x5x5--|
B|--x7x7x7x7--x5x5x5x5--x3x3x3x3--x7x7-x5x5--|
G|--x7x7x7x7--x6x6x6x6--x3x3x3x3--x7x7-x6x6--|
D|--x7x7x7x7--x0x0x0x0--x5x5x5x5--x9x9-x0x0--| X 2
A|--x5x5x5x5--x7x7x7x7--x5x5x5x5--x9x9-x7x7--|
E|-------------------------------------------|

  (you might be a squatter...)

e|--x5x5x5x5--x5x5x5x5---x7x7x7x7--x2x2x2x2--x3x3x3x3--x5x5x5x5--x5x5x5x5----|
B|--x7x7x7x7--x5x5x5x5---x7x7x7x7--x2x2x2x2--x3x3x3x3--x5x5x5x5--x7x7x7x7----|
G|--x7x7x7x7--x6x6x6x6---x7x7x7x7--x2x2x2x2--x3x3x3x3--x6x6x6x6--x7x7x7x7----|
D|--x7x7x7x7--x0x0x0x0---x9x9x9x9--x4x4x4x4--x5x5x5x5--x0x0x0x0--x7x7x7x7----|
A|--x5x5x5x5--x7x7x7x7---x9x9x9x9--x4x4x4x4--x5x5x5x5--x7x7x7x7--x5x5x5x5----|
E|---------------------------------------------------------------------------|

 2(you suffer to know...)
[ Tab from: http://www.guitartabs.cc/tabs/l/leftover_crack/crack_city_rockers_tab.html ]
e|---------------------------------------------------------------------------|
B|---------------------------------------------------------------------------|
G|--7777--11111111-1212-1111-14141414-7777-11111111-1212-1414-18181818-------|
D|--7777--11111111-1212-1111-0-0-0-0--7777-11111111-1212-1414-18181818-------|
A|--5555--9-9-9-9--1010-9-9--12121212-5555-9-9-9-9--1010-1212-16161616-------|
E|---------------------------------------------------------------------------|

 ----------------------------------------------------------------------------|
 ----------------------------------------------------------------------------|
 --19191919-14141414-16161616-11111111-99-1111-12121212-14141414-------------|
 --19191919-14141414-16161616-11111111-99-1111-12121212-0-0-0-0--------------|
 --17171717-12121212-14141414-9-9-9-9--77-9-9--10101010-12121212-------------|
 ----------------------------------------------------------------------------|

 repeat 1 then an overdub at the end part...(after all of the times...)

e|---------------------------------------------------------------------------|
B|---------------------------------------------------------------------------|
G|--7--7-6--6-4--4-----------6--6-7------------------------------------------|
D|--0--0-0--0-0--0-4--4-5--5-0--0-0------------------------------------------|
A|--5--5-4--4-2--2-0--0-0--0-7--7-5------------------------------------------|
E|-----------------2--2-3--3-5--5--------------------------------------------|

 2 then the solo  (bad luck man...)

e|--5------------------------------------------------------------------------|
B|---7-7-5h7-7h8p7h8p7-7-----------------------------------------------------|
G|------------*fast*----7-77-7\6-6-------------------------------------------|
D|--------------------------------7-7-7h9p7h9p7-7----------------------------|
A|-------------------------------------*fast*----9-9h10p9h10p9-9-10p9h10-----|
E|---------------------------------------------------*fast*-------------10---|
                                                                 *fast*
 ------------------|
 ---------8p7h8----|
 --------*fast*7---|
 --9p7h9-----------|
 -------9----------|
 -*fast*-----------|


 i totally butchered this shit. its far from correct. its a key too high for the 
generica version. on rock the 40 oz they play it in this key, but with a slightly different solo.

| /  slide up
| \  slide down
| h  hammer-on
| p  pull-off
| ~  vibrato
| +  harmonic
| x  Mute note
===============================================================================
Comments