Leftover Crack - Crack City Rockers Chords & Tabs

 

Crack City Rockers Chords & Tabs

Leftover Crack Chords & Tabs

Version: 1 Type: Bass Tab 0 ratings
1 star 2 stars 3 stars 4 stars 5 stars
comments

Crack City Rockers Bass Tab

-----------------------------------------------------------------------------
			Crack City Rockers - Leftover Crack
-----------------------------------------------------------------------------

Tabbed By : crackdaddycaine
e-mail: crackdaddycaine@hotmail.com


/=slide
>=8 times

intro
G|---------------------------------
B ---------------------------------
A|---5---------------------5/6-----
E|------5--7--2--3/4--5/6----------


punk verse                                lead into ska
G|--------------------------------------I-----------------------------------
D|--------------------------------------I-----------------------------------
A|---5>---------------------5>--1-1-2-2-I----5>---12-10-9-7-----------------
E|------5>--7>--2>--3>--5>--------------I-5>--------------------------------


[ Tab from: http://www.guitartabs.cc/tabs/l/leftover_crack/crack_city_rockers_btab.html ]
ska verse
G|--------------------------------
D|----4-------------------4---2---
A|--5--5----4------2----2---4-----
E|--------5---5--3---3------------


ska chorus
G|-------------------------------------------------
D|---7----------------------------------------7----
A|-5---5---7------9------4------5------7----5---5--
E|-------5---5--7---7--2---2--3---3--5---5---------


punk chorus
G|--------------------------
D|--------------------------
A|-5>-----------------------
E|-----3>--5>--7777-5555----


this ones kinda weird so ill put up the order

Order:
Intro
Punk Verse x2
Ska Verse x2
Ska Chorus x1
Punk Chorus x2
Punk Verse x1
Ska Verse x2
Ska chorus x1
Punk Chorus x2
Punk Verse x1
Ska Verse x2
Ska Chorus x1
Punk Chorus x2
Punk Verse x1

im thinkin i got it all, email me if theres big problems
Comments