Leftover Crack - Burn Them Prisons Chords & Tabs

 

Burn Them Prisons Chords & Tabs

Leftover Crack Chords & Tabs

Version: 1 Type: Tab 0 ratings
1 star 2 stars 3 stars 4 stars 5 stars
comments

Burn Them Prisons Tab

 Artist:Leftover crack
 Song:burn them prisons
 Album:fuck world trade
 Tuning:standard
 
hey guys well this is my first tab so if i'm wrong on anything e-mail me at
silversteinkid7@aol.com well enjoy


        
           INTRO
 e-----------------------------------------|
 B-----------------------------------------|
 G-12-12-12-12--14-14-14-14----------------|
 D--x--x--x--x---x--x--x--x----------------|
 A-10-10-10-10--12-12-12-12----------------|
 E-----------------------------------------|x16

           CHORUS                                                 
|e----------------------------------------------------------------|
|B----------------------------------------------------------------|
|G-12-12-12-12-12-12-12-12-12-12-12-12-12-12----------------------|
|D--x--x--x--x--x--x--x--x--x--x--x--x--x--x----------------------|
|A-10-10-10-10-10-10-10-10-10-10-10-10-10-10----------------------|
|E----------------------------------------------------------------|
|                                                                 |
|                                                                 |
|e----------------------------------------------------------------|
|B----------------------------------------------------------------|
|G-9-9-9-9-9-9-9-9-9-9-9-9-9-9------------------------------------|
|D-x-x-x-x-x-x-x-x-x-x-x-x-x-x------------------------------------|
|A-7-7-7-7-7-7-7-7-7-7-7-7-7-7------------------------------------|
|E----------------------------------------------------------------|X2

        RIFF#1
 e----------------------------------------------------------------|
 B----------------------------------------------------------------|
 G-9-9-9-9-9-9-9-9-9-9-9-9-9-9---9-9-9-9-9-9-9-9-9-9-9-9-9-9------|
 D-x-x-x-x-x-x-x-x-x-x-x-x-x-x---x-x-x-x-x-x-x-x-x-x-x-x-x-x------|
 A-x-x-x-x-x-x-x-x-x-x-x-x-x-x---x-x-x-x-x-x-x-x-x-x-x-x-x-x------|
 E----------------------------------------------------------------|X2
        RIFF#2
 e----------------------------------------------------------------|
 B----------------------------------------------------------------|
 G-9-9-9-9-9-9-9---12-12-12-12---14-14-14-14----------------------|
 D-x-x-x-x-x-x-x----x-x-x-x-x-----x--x--x--x----------------------|
 A-7-7-7-7-7-7-7---10-10-10-10---12-12-12-12----------------------|
 E----------------------------------------------------------------|X8
       CHOURS
|e----------------------------------------------------------------|
|B----------------------------------------------------------------|
|G-12-12-12-12-12-12-12-12-12-12-12-12-12-12----------------------|
|D--x--x--x--x--x--x--x--x--x--x--x--x--x--x----------------------|
|A-10-10-10-10-10-10-10-10-10-10-10-10-10-10----------------------|
|E----------------------------------------------------------------|
|                                                                 |
|e----------------------------------------------------------------|
|B----------------------------------------------------------------|
|G-9-9-9-9-9-9-9-9-9-9-9-9-9-9------------------------------------|
|D-x-x-x-x-x-x-x-x-x-x-x-x-x-x------------------------------------|
|A-7-7-7-7-7-7-7-7-7-7-7-7-7-7------------------------------------|
|E----------------------------------------------------------------|X2
[ Tab from: http://www.guitartabs.cc/tabs/l/leftover_crack/burn_them_prisons_tab.html ]
        RIFF#1
 e----------------------------------------------------------------|
 B----------------------------------------------------------------|
 G-9-9-9-9-9-9-9-9-9-9-9-9-9-9---9-9-9-9-9-9-9-9-9-9-9-9-9-9------|
 D-x-x-x-x-x-x-x-x-x-x-x-x-x-x---x-x-x-x-x-x-x-x-x-x-x-x-x-x------|
 A-x-x-x-x-x-x-x-x-x-x-x-x-x-x---x-x-x-x-x-x-x-x-x-x-x-x-x-x------|
 E----------------------------------------------------------------|X2

        RIFF#2
 e----------------------------------------------------------------|
 B----------------------------------------------------------------|
 G-9-9-9-9-9-9-9---12-12-12-12---14-14-14-14----------------------|
 D-x-x-x-x-x-x-x----x-x-x-x-x-----x--x--x--x----------------------|
 A-7-7-7-7-7-7-7---10-10-10-10---12-12-12-12----------------------|
 E----------------------------------------------------------------|X8

       PRE ENDING
 e----------------------------------------------------------------|
 B----------------------------------------------------------------|
 G-12-12-12-12-12-12-12-12-12-12-12-12-12-12----------------------|
 D--x-x--x--x--x--x--x--x--x--x--x--x--x--x-----------------------|
 A-10-10-10-10-10-10-10-10-10-10-10-10-10-10----------------------|
 E----------------------------------------------------------------|X2


     CHORUS
|e----------------------------------------------------------------|
|B----------------------------------------------------------------|
|G-12-12-12-12-12-12-12-12-12-12-12-12-12-12----------------------|
|D--x-x--x--x--x--x--x--x--x--x--x--x--x--x-----------------------|
|A-10-10-10-10-10-10-10-10-10-10-10-10-10-10----------------------|
|E----------------------------------------------------------------|
|                                                                 |
|e----------------------------------------------------------------|
|B----------------------------------------------------------------|
|G-9-9-9-9-9-9-9-9-9-9-9-9-9-9------------------------------------|
|D-x-x-x-x-x-x-x-x-x-x-x-x-x-x------------------------------------|
|A-7-7-7-7-7-7-7-7-7-7-7-7-7-7------------------------------------|
|E----------------------------------------------------------------|


                   ENDING
 e----------------------------------------------------------------|
 B----------------------------------------------------------------|
 G-19-19-19-19-19-19-19-19-19-19-19-19-19-19----------------------|
 D-x--x--x--x--x--x--x--x--x--x--x--x--x--x-----------------------|
 A-17-17-17-17-17-17-17-17-17-17-17-17-17-17----------------------|
 E----------------------------------------------------------------|


 e----------------------------------------------------------------|
 B----------------------------------------------------------------|
 G-17-17-17-17-17-17-17-17-17-17-17-17-17-17----------------------|
 D-x--x--x--x--x--x--x--x--x--x--x--x--x--x-----------------------|
 A-15-15-15-15-15-15-15-5-15-15-15-15-15-15-----------------------|
 E----------------------------------------------------------------|


 e----------------------------------------------------------------|
 B----------------------------------------------------------------|
 G-19-19-19-19-19-19-19-19-19-19-19-19-19-19----------------------|
 D-x--x--x--x--x--x--x--x--x--x--x--x--x--x-----------------------|
 A-17-17-17-17-17-17-17-17-17-17-17-17-17-17----------------------|
 E----------------------------------------------------------------|


 THERE HOPE ITS! WELL THIS TOOK ME A LONG ASS TIME TO FIGURE OUT SO DONT PISS ME OFF!LATER
Comments